Guitar Tabs for Kabira - Yeh Jaawani Hai Deewani Tabs

(/) Slide Up  (\) Slide Down  (h) Hammer On  (p) Pull Off  (b) Bend (r) Release (v) Vibrato

Tabs for Song : Kabira

Kaisi Teri Khudgarzi
E|--------------------------
B|-----5--------------------
G|--6-----7--6--------------
D|--------------7--7---7/9--
A|--------------------------
E|--------------------------

Na Dhoop Chune Na Chhaaon
E|-----------------------------
B|-----------------------------
G|--7--6-----------------------
D|--------7--7--7--9--9--7--7--
A|-----------------------------
E|-----------------------------

Kaisi Teri Khudgarzi
E|-----------------------------
B|-----5-----------------------
G|--6-----7--6-----------------
D|--------------7--7---7/11-9--
A|-----------------------------
E|-----------------------------

Kisi Thor Tike Na Paaon
E|-----------------------------
B|-----------------------------
G|--7--6-----------------------
D|--------7--7--7--9--9--7--7--
A|-----------------------------
E|-----------------------------

Ban Liya Apna Paigambar
E|-----------------------------
B|-----8--7--------------------
G|--9--------9--7--7--7--7--9--
D|-----------------------------
A|-----------------------------
E|-----------------------------

Tar Liya Tu Saat Samandar
E|--------------------------------
B|--7-----8--7--------------------
G|-----9--------9--7--7--7--7--7--
D|--------------------------------
A|--------------------------------
E|--------------------------------

Phir Bhi Sookha Mann Ke Andar Kyun Reh Gaya
E|-----------------------------------------------
B|--7-----8--7-----------------------10-8--8--8--
G|-----9--------9--7-----7--7--7--9--------------
D|-----------------------------------------------
A|-----------------------------------------------
E|-----------------------------------------------

Re Kabira Maan Jaa Re Faqeera Maan Jaa
E|--------------------------
B|--------------------------
G|--------9--7--6-----------
D|--7--7-----------7---7/9--
A|--------------------------
E|--------------------------

Aaja Tujhko Pukaare Teri Parchhaaiyan
E|--------------------------------------------------
B|--------------------------------------------------
G|-----------11-11-12-11-9--7--6-----6--7--7--9--9--
D|--9--9--9-----------------------------------------
A|--------------------------------------------------
E|--------------------------------------------------
tabs and chords, guitar tabs, music contests, music covers, songsterr, reverbnation, renditions, tabulature, bollywood chords, ultimate guitar, yousician, guitar lessons, torrins, fender, gibson, acoustic guitar, electric guitar, youtube covers, gootar, guitar tuner, A-Z tabs, 911 tabs