Bass Tabs for Do It All The Time

(/) Slide Up  (\) Slide Down  (h) Hammer On  (p) Pull Off  (b) Bend (r) Release (v) Vibrato (x) Muted

Tabs for Song : 
BPM : 107

Song lyrics here
G|--------------16-16-15-15-15-16----------16-16-15-15-15-16----
D|--11-13-14-------------------------11-13----------------------
A|--------------------------------------------------------------
E|--------------------------------------------------------------
verse 1
G|-----------------------------------------------------------------------------
D|-----------------------------------------------------------------------------
A|--4--6--7-----4-----4--6--7--6--4-----------------------------4--6--7--6--4--
E|-----------4--------------------------4--2--4--5--4--2-----4-----------------
bridge 1
G|-----2--2--2-----2--2--2--4-----------------------------
D|-----------------------------4--------------------------
A|--4-----------4--------------------------4--6--7--6--4--
E|--------------------------------------4-----------------
verse 2
G|-----------------------------------------------------------------------------
D|-----------------------------------------------------------------------------
A|--4--6--7-----4-----4--6--7--6--4-----4--2--4--5--4--2--------4--6--7--6--4--
E|-----------4-----------------------------------------------4-----------------

bridge 2
G|-----2--2--2-----2--2--2--4-----------------------------
D|-----------------------------4--------------------------
A|--4-----------4--------------------------4--6--7--6--4--
E|--------------------------------------4-----------------
chorus  1

G|--------------------------------------------------------------------------------------------------
D|--------------------------------------------------------------------------------------------------
A|--------------------------------------------------------------------------------------------------
E|--2--2--2--2--2--2--2--2--4--4--4--4--4--4--4--4--5--5--5--5--5--5--5--5--7--7--7--7--7--7--7--7--

G|--------------------------------------------------------------------------------
D|--------------------------------------------------------------------------------
A|--------------------------------------------------------------------------------
E|--2--2--2--2--2--2--2--2--4--4--4--4--4--4--4--4--5--5--5--5--5--5--5--5--7--7--
riff time
G|-----------16-16-15-15-15-16-------------16-16-15-15-15-16-------------16-16-15-15-15-16----------16-16-15-15-15-16-
D|--11-13-14----------------------11-13-14----------------------11-13-14----------------------11-13-------------------
A|--------------------------------------------------------------------------------------------------------------------
E|--------------------------------------------------------------------------------------------------------------------
verse 3 
G|-----------16-16-15-15-15-16-------------16-16-15-15-15-16-------------------------------16-16-15-15-15-16-
D|--11-13-14----------------------11-13-14-------------------------------------------11-13-------------------
A|-----------------------------------------------------------------------------------------------------------
E|--------------------------------------------------------------4--2--4--5--4--2-----------------------------
bridge 3
G|-----2--2--2-----2--2--2--4-----
D|--4-----------4--------------4--
A|--------------------------------
E|--------------------------------
chorus 2
G|--------------------------------------------------------------------------------------------------
D|--------------------------------------------------------------------------------------------------
A|--------------------------------------------------------------------------------------------------
E|--2--2--2--2--2--2--2--2--4--4--4--4--4--4--4--4--5--5--5--5--5--5--5--5--7--7--7--7--7--7--7--7--

G|--------------------------------------------------------------------------------------------------
D|--------------------------------------------------------------------------------------------------
A|--------------------------------------------------------------------------------------------------
E|--2--2--2--2--2--2--2--2--4--4--4--4--4--4--4--4--5--5--5--5--5--5--5--5--7--7--7--7--7--7--7--7--

G|--------------------------------------------------------------------------------------------------
D|--------------------------------------------------------------------------------------------------
A|--------------------------------------------------------------------------------------------------
E|--2--2--2--2--2--2--2--2--4--4--4--4--4--4--4--4--5--5--5--5--5--5--5--5--7--7--7--7--7--7--7--7--

G|--------------------------------------------------------------------------------
D|--------------------------------------------------------------------------------
A|--------------------------------------------------------------------------------
E|--2--2--2--2--2--2--2--2--4--4--4--4--4--4--4--4--5--5--5--5--5--5--5--5--7--7--

Paste any tab in acousterr's tab maker and we'll play it !!!
Now supports capo and sound effects for vibrato/pull-off/hammer/bends/mutes etc !!! Checkout help section
tabs and chords, guitar tabs, music transcription, music technology, deep learning, music information retrieval, transcribe into tabs & chords, chordify, music renditions, songsterr, reverbnation, tabulature, bollywood chords, ultimate guitar, yousician, guitar lessons, acoustic guitar, electric guitar, guitar tuner, 911 tabs