Guitar Tabs for Jurrasic Park Theme

(/) Slide Up  (\) Slide Down  (h) Hammer On  (p) Pull Off  (b) Bend (r) Release (v) Vibrato (x) Muted

Tabs for Song : 
BPM : 200

Song lyrics here 
E|-----9--------------------------------------------------------------------0--0-----3--3-----------2-----0-----------2-----0--------5-----3-----2--2-----0-----0-----------------------------------------------------------
B|--------------------------------3--2--3--------3--2--3--------3--2--3--------2--------3--------------3--------2--------3--------------3--0--------3-----------2-----------3--2--3--------------3--2--3--------------2-----
G|--(7)---(7)---12)---6--------0--------2--------------4--------------2--------------------------2-----------------2--------------2--------0--------2-----------2-----------------------2--------------------4-----------6--
D|-----------(7)---12)---12)------------4--------------5--------------4--------2--------------------0--------2--------4-----2--------4-----------------------------------------------0-----0--0-----------0-----0--0--------
A|--------------------------12)------------------------------------------------0--------------------------0-----------------0-----------------------0-----------------0-----------------------------------------------------
E|--------(0)------------(0)------------0--------------5--------------0-----------------0-----------------------------0-----------------------------------------------------------0--------------------5--------------------

E|-----------0--0--------3--3-----------------2-----0-----------------0-----0-----------------5-----3-----2--2--------0--0-----------------10\9--10----5-----3-----10\9--10----5-----3-----10\9--9--10-------5--------3-----
B|--5-----------------2-----3--------3-----------3-----------2-----------3-----------2--------3--3--0--------------3-----2--------0--------------7-----------0-----------7-----------0--------------------------------------
G|--------2-----------------------2-----2-----------------2-----2--------2--------2-----2-----------0--------------2-----2-----2-----6-----------7-----------0-----------7-----------0-----------------7-----------7--------
D|-----0-----------2-----------0-----------0-----------2--------------0--------2-----------2--4--------0--------2-----------2-----------------------------------------------------------------------------0-----0-----------
A|--------------0-----------------------------------0-----------------------0-----------------0--------------------------0--------------(7)---------------------------------------------------------------------------------
E|--0-----------------------0-----------------0--------------------0--------------------------0-----3--------0-----------------------------------0-----------5-----------0-----------5-----------0--------------------5-----

E|--------10-9--10----5-----3-----10\9--10----5-----3-----10\9--10----------------3--2--3-----0-----0--------------------------------------------------10----5-----3-----10-9--9--12-------5-----------8-----------------------
B|--------10----7-----------0-----------7-----------0-----------7-----10-8--10----5--------------3--2--3--2--3--------------------3--------------3-----7-----3-----0-----0-----------------------3-----------------0-----------
G|-----0--------7-----------0-----------7-----------0-----------7-----7--------------------4-----------2-----------2--------6--2--------4-----------6--7-----------0-----------------7--------------------5--5--5-----0--------
D|--0--------------------------------------------------------------0-----------0--------------------------------0-----0--0-----------0-----0--0-----------0-----0-----0-----------0-----0-----0-----0--------------------0-----
A|--------0-----------------------------------------------------------------------------------------0-----------------------------------------------------------------------------------------------------------------------0--
E|--------------0-----------5-----------0-----------3-----------0--------------------------------------------0--------------------5--------------------0-----------5-----------0-----------4-----------5-----------------------

E|--10-9--10----10-9--10----5-----3--10-9--10----------------3--2--3-----0-----0-----10-9--10----10-9--10----------10-9--10-13-12-15-16-14----12-------14----12-17----15-14-14-12-12-10-------------10-9--10----
B|--10----7-----------7-----3-----0--0-----7-----10-8--10----5--------------3--------------7-----------0-----------------7-----10----12----15----14-------15-------15-12----15----14-10----------10-------7-----
G|--------7-----------7-----------0--------7-----7--------------------4--------------------7-----------0-----------------7-----------12-------------14----------------12-------------------12-------------7-----
D|--------0--------------0-----0--------------0-----------0-----------------------7--------0-----------------------------------11----12----------------12----------------------------0--12-------------------0v-
A|-----------------------------------------------------------------------------0--------------------------------------------------------------12-------------12----------------------0--------7-----------------
E|-----------0--------0-----------5--------0--------------------------------------------------0-----------0--0--0--------------------------------------------------------------------8--------------------0-----

Song lyrics here 
E|--
B|--
G|--
D|--
A|--
E|--

Use manual mode to free up cursor. Paste any tab in acousterr tab maker and we'll play it !!!
tabs and chords, guitar tabs, music transcription, music technology, deep learning, music information retrieval, transcribe into tabs & chords, chordify, music renditions, songsterr, reverbnation, tabulature, bollywood chords, ultimate guitar, yousician, guitar lessons, acoustic guitar, electric guitar, guitar tuner, 911 tabs