Guitar Tabs for Jurassic Park

(/) Slide Up  (\) Slide Down  (h) Hammer On  (p) Pull Off  (b) Bend (r) Release (v) Vibrato (x) Muted

Tabs for Song : 

Intro
E|--------------------------------------0--0-----3--3-----2-----0--------2-----0--5-----3--2--2--0--0-----
B|--3--2--3-----3--2--3-----3--2--3--------------------------3-----2--------3--------3--------------------
G|--------------------------------------------------------------------2-----------------------------------
D|--------0-----------0-----------0-----------------------------------------------------------------------
A|--------------------------------------------------------------0--------------0--------------------0-----
E|-----------------------------------------3--------3-----------------------------------3-----3-----------


Repeat
E|-----------------------------------------------------
B|--3--2--3--------3--2--3--------3--2--2--3--------1--
G|-----------2--0-----------2--0--------------2-----0--
D|--------0--------------0--------------0--------0-----
A|--------------------------------------------------3--
E|-----------------------------------------------------


Tabbed from Drue James' LGIL video on YouTube, https://www.youtube.com/watch?v=pj2GelN68dU&t=62s
All credit goes to him.
tabs and chords, guitar tabs, music transcription, music technology, deep learning, music information retrieval, transcribe into tabs & chords, chordify, music renditions, songsterr, reverbnation, tabulature, bollywood chords, ultimate guitar, yousician, guitar lessons, acoustic guitar, electric guitar, guitar tuner, 911 tabs