Guitar Tabs for June Again

(/) Slide Up  (\) Slide Down  (h) Hammer On  (p) Pull Off  (b) Bend (r) Release (v) Vibrato (x) Muted

Tabs for Song : 
BPM : 300
JUNE AGAIN
INTRO
(x2)
C|--------------------------------------------------------------------------------------------------
G|--0-----------0-----------2-----------2-----------4-----------4-----------2-----------2-----------
E|-----4-----------4-----------4-----------4-----------4-----------4-----------4-----------4--------
B|--------4-----------4-----------4-----------4-----------4-----------4-----------4-----------4-----
F|--------------------------------------------------------------------------------------------------
C|--------------------------------------------------------------------------------------------------
ALREADY JUNE AGAIN I’M WAITING...
(X2)
C|--------------------------------------------------------------------------------------------------
G|--0-----------0-----------2-----------2-----------4-----------4-----------2-----------2-----------
E|-----4-----------4-----------4-----------4-----------4-----------4-----------4-----------4--------
B|--------4-----------4-----------4-----------4-----------4-----------4-----------4-----------4-----
F|--------------------------------------------------------------------------------------------------
C|--------------------------------------------------------------------------------------------------


NAIVE, IF IT’S ALL THE SAME TO YOU
C|--0-----------0-----------2-----------2-----------0-----------0-----------2-----------2-----------
G|-----0-----------0-----------0-----------0-----------0-----------0-----------0-----------0--------
E|--------4-----------4-----------4-----------4-----------4-----------4-----------4-----------4-----
B|--------------------------------------------------------------------------------------------------
F|--------------------------------------------------------------------------------------------------
C|--------------------------------------------------------------------------------------------------

MEEEEEE
C|--0-----0-----0-----0-----0-----
G|--0-----0-----0-----0-----0-----
E|--4-----4-----4-----4-----4-----
B|--------------------------------
F|--------------------------------
C|--------------------------------
CHORUS
EMILYYY DO YOU REMEMBER ME...
C|--------------------------------------------------------
G|--------------------------------------------------------
E|--4--4--4--4--4--4--4--4--4--4--4--4--4--4--4--4--4--4--
B|--4--4--4--4--4--4--4--4--4--4--4--4--2--2--2--2--4--4--
F|--2--2--2--2--2--2--2--2--4--4--4--4--2--2--2--2--4--4--
C|--------------4--4--4--4--2--2--2--2--0--0--0--0--2--2--
(X2)     
C|--------------------------------------------------
G|--7--0--5--0--4--0--2--0--2--4--2--0--2--4--2--0--
E|--------------------------------------------------
B|--------------------------------------------------
F|--------------------------------------------------
C|--------------------------------------------------
LEAD GUITAR CONT.
C|--------------------------
G|--------------------------
E|---4/-9\8---4/-9\-8\4-----
B|--------------------------
F|---2/-7\6---2/-7\-6\2-----
C|--------------------------

V2
WHAT IF DEAR
DRONE FOR 6 BARS
C|--------------
G|--------------
E|--4--4--4--4--
B|--------------
F|--2--2--2--2--
C|--------------
DRONE EACH FOR 1 BAR
C|--------------------------------------
G|--------------------------------------
E|--4--------4--------4--------4--------
B|--------------------------------------
F|--2--------2--------2--------2--------
C|--4--------2--------0--------2--------
REPEAT CHORUS

BRIDGE/SOLO
STRUM EACH FOR 1 BAR
(X2)
C|--------------------------------------
G|--------------------------------------
E|--4--------4--------4--------4--------
B|--4--------4--------2--------4--------
F|--2--------4--------2--------4--------
C|--4--------2--------0--------2--------
QUIET BRIDGE
EMILY DO YOU REMEMBER ANYTHING...
CLEAN
C|--------------------------------------------------------------------------------------------------
G|--------------0-----------------------0-----------------------0-----------------------------------
E|--------4--------4-----4--------4--------4-----4--------4--------4-----4--------4-----------4-----
B|-----4-----4--------4--------4-----4--------4--------4-----4--------4--------4-----4-----4-----4--
F|--2-----------------------2-----------------------------------------------------------------------
C|--------------------------------------------------4-----------------------0-----------2-----------
(X3)
C|--------------------------------------------------
G|--------------0-----------------------0-----------
E|--------4--------4-----4--------4--------4-----4--
B|-----4-----4--------4--------4-----4--------4-----
F|--------------------------------------------------
C|--0-----------------------2-----------------------

C|--------------------------------------------------
G|--------------0-----------------------0-----------
E|--------4--------4-----4--------4-----------------
B|-----4-----4--------4--------4-----4--------------
F|--------------------------------------------------
C|--0-----------------------2-----------------------
CHORUS

OUTRO 
DOWN STRUM EACH 1 MEAS
C|-----------------------------------------------------------
G|-----------------------------------------------------------
E|--4--4--4--4--4--4--4--4--4--4--4--4--4--4--4--4--4--------
B|--4--4--4--4--4--4--4--4--4--4--4--4--4--4--4--4--2--------
F|--2--2--2--2--2--2--2--2--4--4--4--4--4--4--4--4--2--------
C|--4--4--4--4--4--4--4--4--2--2--2--2--2--2--2--2--0--------



Use manual mode to free up cursor. Paste any tab in acousterr tab maker and we'll play it !!!
tabs and chords, guitar tabs, music transcription, music technology, deep learning, music information retrieval, transcribe into tabs & chords, chordify, music renditions, songsterr, reverbnation, tabulature, bollywood chords, ultimate guitar, yousician, guitar lessons, acoustic guitar, electric guitar, guitar tuner, 911 tabs