Guitar Tabs for Come Again

(/) Slide Up  (\) Slide Down  (h) Hammer On  (p) Pull Off  (b) Bend (r) Release (v) Vibrato (x) Muted

Tabs for Song : 

Song lyrics here
E|--0-----------0--------0-----------0-----------------0--
B|--0-----------0--------0--4--2--4--0-----5--4--2--4--0--
F|--2-----------2--------2--------------3--------------2--
D|--2-----------2--------2-----------2--------------------
A|-----------------------------0--------------------------
E|-----------------------------------4--2--------------0--

E|--0--2--4-----2-----0-----0-----
B|--0-----------2--4--0--------4--
F|--2-----------3--------------5--
D|--------------------2--------4--
A|-----------------------------2--
E|--0--------0--2-----4--0--------

E|-----0-----------------------0-----
B|--4--0-----0-----2--------------4--
F|--5--------------5--4--2--4-----5--
D|--4--2--------------------------4--
A|--2-----------------------------2--
E|-----0--4-----2--------------------

E|--0--------------------------------------------0-----------0--2-----2--4-----4-----2--0--------------0--------0--
B|--------------2-----------2--4--------------4--------------2--0-----0--------0-----2--------4--2--------4--------
F|--------------3-----------3--5--------------5--2-----------------------------------3--------------------5--------
D|-----------------------------4--------------4-----------------1-----1--2-----2--------------------------4--------
A|--2-----------0-----------0--2--------------2--4-----------4-----------------------------------0--------2--------
E|--4-----------------------------------------------------------------------0-----0--2--4--------------------4-----

E|--------------------------0--
B|--2--------------0--------0--
F|--3--2-----3-----0-----3--2--
D|-----------------2--1--------
A|--0--2--4-----2--------------
E|--------------------------0--

Song lyrics here
E|--
B|--
F|--
D|--
A|--
E|--

Paste any tab in acousterr's tab maker and we'll play it !!!
Now supports capo and sound effects for vibrato/pull-off/hammer/bends/mutes etc !!! Checkout help section
tabs and chords, guitar tabs, music transcription, music technology, deep learning, music information retrieval, transcribe into tabs & chords, chordify, music renditions, songsterr, reverbnation, tabulature, bollywood chords, ultimate guitar, yousician, guitar lessons, acoustic guitar, electric guitar, guitar tuner, 911 tabs