Guitar Tabs for Johnny Lighting

(/) Slide Up  (\) Slide Down  (h) Hammer On  (p) Pull Off  (b) Bend (r) Release (v) Vibrato (x) Muted

Tabs for Song : 

intro
E|-----------------------------------------------------
B|--------------------------------------------------3--
G|-----2--2--2--------2--2--2--2--2--2--------------2--
D|-----2--2--2--------2--2--2--2--2--2--------------0--
A|-----0--0--0---3b---0--0--0--0--0--0---3p0-----------
E|---3b----------------------3b-------------3p0--2-----

couplet
E|--------------------------------------------------
B|--------------------------------------------------
G|-----2--2--2--2--2--2-----------2--2--2--2--2--2--
D|-----2--2--2--2--2--2-----------2--2--2--2--2--2--
A|-----0--0--0--0--0--0---3b-3b---0--0--0--0--0--0--
E|---3b-------------------------3b------------------ 

Bridge
E|--------------------------------
B|--------------------------------
G|--------------------------------
D|--2--------------2-----------0--
A|--2--3--2--0--2--2--3--2--0-----  
E|--0--------------0--------------

refrein
E|------------------------------------------------------------------------------------------------------
B|--------3--3--------3--3--------3--3-----------------3--3--------3--3--------3--3---------------------
G|--2-----2--2--2-----2--2--2-----2--2--1--------2-----2--2--2-----2--2--2-----2--2--1-----------5-----9
D|--2-----0--0--2-----0--0--2-----0--0--2-----5--2-----0--0--2-----0--0--2-----0--0--2-----5-----5-----9
A|--0-----------0-----------0-----------2-----5--0-----------0-----------0-----------2-----5-----3-----7
E|--------------------------------------0-----3--------------------------------------0-----3------------

interlude
E|-----------------------------------------------------
B|--------------------------------------------------3--
G|-----2--2--2--------2--2--2--2--2--2--------------2--
D|-----2--2--2--------2--2--2--2--2--2--------------0--
A|-----0--0--0---3b---0--0--0--0--0--0---3p0-----------
E|---3b----------------------3b-------------3p0--2-----

couplet
E|--------------------------------------------------
B|--------------------------------------------------
G|-----2--2--2--2--2--2-----------2--2--2--2--2--2--
D|-----2--2--2--2--2--2-----------2--2--2--2--2--2--
A|-----0--0--0--0--0--0---3b-3b---0--0--0--0--0--0--
E|---3b-------------------------3b------------------

Bridge
E|--------------------------------
B|--------------------------------
G|--------------------------------
D|--2--------------2-----------0--
A|--2--3--2--0--2--2--3--2--0-----  
E|--0--------------0--------------

refrein
E|------------------------------------------------------------------------------------------------------
B|--------3--3--------3--3--------3--3-----------------3--3--------3--3--------3--3---------------------
G|--2-----2--2--2-----2--2--2-----2--2--1--------2-----2--2--2-----2--2--2-----2--2--1-----------5-----9
D|--2-----0--0--2-----0--0--2-----0--0--2-----5--2-----0--0--2-----0--0--2-----0--0--2-----5-----5-----9
A|--0-----------0-----------0-----------2-----5--0-----------0-----------0-----------2-----5-----3-----7
E|--------------------------------------0-----3--------------------------------------0-----3------------

interlude
E|-----------------------------------------------------
B|--------------------------------------------------3--
G|-----2--2--2--------2--2--2--2--2--2--------------2--
D|-----2--2--2--------2--2--2--2--2--2--------------0--
A|-----0--0--0---3b---0--0--0--0--0--0---3p0-----------
E|---3b----------------------3b-------------3p0--2-----

solo

Bridge
E|--------------------------------
B|--------------------------------
G|--------------------------------
D|--2--------------2-----------0--
A|--2--3--2--0--2--2--3--2--0-----  
E|--0--------------0--------------

refrein
E|------------------------------------------------------------------------------------------------------
B|--------3--3--------3--3--------3--3-----------------3--3--------3--3--------3--3---------------------
G|--2-----2--2--2-----2--2--2-----2--2--1--------2-----2--2--2-----2--2--2-----2--2--1-----------5-----9
D|--2-----0--0--2-----0--0--2-----0--0--2-----5--2-----0--0--2-----0--0--2-----0--0--2-----5-----5-----9
A|--0-----------0-----------0-----------2-----5--0-----------0-----------0-----------2-----5-----3-----7
E|--------------------------------------0-----3--------------------------------------0-----3------------

outro
E|-----------------------------------------------------                   --------------
B|--------------------------------------------------3--                   -------------3
G|-----2--2--2--------2--2--2--2--2--2--------------2--                   -------------2
D|-----2--2--2--------2--2--2--2--2--2--------------0--                   -------------0
A|-----0--0--0---3b---0--0--0--0--0--0---3p0-----------                   --3p0---------
E|---3b----------------------3b-------------3p0--2-----  eindigt met 3x   -----3p0--2---



Paste any tab in acousterr's tab maker and we'll play it !!!
Now supports capo and sound effects for vibrato/pull-off/hammer/bends/mutes etc !!! Checkout help section
tabs and chords, guitar tabs, music transcription, music technology, deep learning, music information retrieval, transcribe into tabs & chords, chordify, music renditions, songsterr, reverbnation, tabulature, bollywood chords, ultimate guitar, yousician, guitar lessons, acoustic guitar, electric guitar, guitar tuner, 911 tabs