Guitar Tabs for Johnny Guitar

(/) Slide Up  (\) Slide Down  (h) Hammer On  (p) Pull Off  (b) Bend (r) Release (v) Vibrato (x) Muted

Tabs & Chords
BPM : 133.0
Check Track 2 for Chord Positions 

                Am                      Dm                                           Am       
E|--------------------------0--------0-----------------------------------0-----0--------------
B|--------0--0--0--------------------------------------------------------------------------0--
G|--------------------------------------------12-------------12-------------------------------
D|--------------------------------12----15-15-------15-15-15----15-15-15----15----------------
A|--12-12----------15-15-15----------------------------------------------------------12-12----
E|--------------------------------------------------------------------------------------------

                               Dm                                        Am                      
E|--------------0-----------0--------0-----------------------------------0-----0-----------------
B|--0-----------------------------------------------------------------------------------12----13-
G|--------------------------------------14----14-14----14----12-------------------14-14----------
D|--------------------12-12----12-15----------------------------16-15----------------------------
A|-----15-15-15----------------------------------------------------------------------------------
E|-----------------------------------------------------------------------------------------------

          Dm                                                          Am                         
E|-----------------------------------------------------------------------------0--0--0-----------
B|--13----13-13----13----12----------13-13-13-13----13-12----------13-12-12----------------------
G|--------------------------14-14-14----------------------15-14----------------------------------
D|-----------------------------------------------------------------------------------------------
A|--------------------------------------------------------------------------------------12----12-
E|-----------------------------------------------------------------------------------------------

                         F                                E                                      
E|-----------------------------------------------------------------------------------------------
B|-----13----12----------13----13----13----13-12----------12-12----12----12----------------------
G|--------------14-14----------------------------14-14----------------------14-13-14----14----14-
D|-----------------------------------------------------------------------------------------------
A|-----------------------------------------------------------------------------------------------
E|-----------------------------------------------------------------------------------------------

       Am          G                                         F                                
E|--------------------------------------------------------------------------------------------
B|--------------12----------------------------------------------------------------------------
G|-----14----14----14----12-12----12-12----12-12----14-12-------------------------12-14-12----
D|-----------------------------------------------------------15----15-15-15-15-15----------16-
A|--------------------------------------------------------------------------------------------
E|--------------------------------------------------------------------------------------------

                E                                         Am                            Dm       
E|--------0--0--0--0-----0--0-----0--------------------------------0-----0-----0--0--------------
B|--------------------------------------------------------0--------------------------------------
G|-----12-------------------------------14----14----------------------------------------12-------
D|--15----------------------------------------------------------------------12-------15----------
A|--------------------------------------------------12-------15-------------------------------12-
E|-----------------------------------------------------------------------------------------------

             Am                                                       Dm                   Am 
E|-----------------0-----------------------------------0-----0-----0--------------------------
B|--------------------------------------0-----------------------------------------------------
G|--------12-------------------------------------------------------------------14-------12----
D|-----15----15-------------------------------------------------12----15-------------0--------
A|-----------------------------12-12----------15-15----------------------12----------------0--
E|-----------------------12-------------------------------------------------------------------

                                           Dm                                                 
E|--0-----0--------------------------0--------------------------------------------------------
B|--------------------------------------------12----13----13----------13-13----13-13-13----12-
G|--------------------------------------14-14-------------------14----------------------------
D|--------------------------------------------------------------------------------------------
A|--------------------------12----12----------------------------------------------------------
E|--------------12----12----------------------------------------------------------------------

    Am                                  F                    E                          Am    
E|--------------0--0-----0-----0--------------------------------------------------------------
B|--------------------------------13-12----13----13-13-12-------12----12----12-12-------------
G|--14----------------------------------14----------------14-14----14-------------14-13-14-14-
D|--------------------------------------------------------------------------------------------
A|--------12----------------------------------------------------------------------------------
E|--------------------------------------------------------------------------------------------

                      G           F                          E                                
E|--------------------17----15----17-------------------------------0--------------------------
B|--------------------------------------------------------------------12----0--------------12-
G|--------------14-14----------------------------------14-12----------------------------14----
D|-----------------------------------15----15-15----15-------15-------------------------------
A|--12----12-------------------------------------15-------------------------------------------
E|-----------------------------------------------------------------------7-----7-----12-------

    Am                               Dm                               Am          A           
E|--------12-12-12-12-12----------13-13-15-13-15-15-15----13-13-13-13-13-13-12-12-12-0--------
B|--13-12-------------------15----------------------------------------------------------------
G|--------------------------------------------------------------------------------------------
D|--------------------------------------------------------------------------------------------
A|--------------------------------------------------------------------------------------------
E|-----------------------------------------------------------------------------------------12-

                   Am                                              Dm                         
E|--------------------------------12----12-12-12-12-------12-12-13-17-13-17-17-17-17----15-15-
B|-----------------12-12-13-13-13----13----------------15-------------------------------------
G|-----14----14-------------------------------------------------------------------------------
D|--------------------------------------------------------------------------------------------
A|--------------------------------------------------------------------------------------------
E|--12----------------------------------------------------------------------------------------

       A                                   Dm                                                 
E|-----15-12-12-12-12-12-0--------------------------------------------------------------------
B|-----------------------------------------------------------12----12-12----------12----12----
G|-----------------------------------------------------14-------14-------14-14-------------14-
D|-----------------------------------------12-0-----15----------------------------------------
A|-----------------------------12----12-------------------------------------------------------
E|--------------------------------------------------------------------------------------------

       Am                                                 F                 E           Am       
E|-----0--------------------------0-----------------------------------------------------------0--
B|--------------12----12-------------------12----12-12----12----------------------0--------------
G|--------14-------14----14----14----14-------14-------------14----------------------------------
D|-----------------------------------------------------------------------------------------------
A|--------------------------------------------------------------------0-----------------12-------
E|--------------------------------------------------------------1--1--------7--7-----------------

                G                 F     E              Am          Dm                Am          
E|--0-----------------------------------0-----0-----------0-----0-----------------------0-----0--
B|--------------------------0--------------------------------------------------------------------
G|--------14----12----------------------------------------------------12----------12-------------
D|--------------------12----------15-------------------------------15-------15-------15----------
A|-----------------------------------------------12----15----------------------------------------
E|-----12----------------------------------------------------------------------------------------

                                     Dm                Am                   Dm                
E|-----------------------0--------0--------------------0-----0-----0--0-----------------------
B|--------0--0--0-----------------------------------------------------------------13-13-13----
G|--------------------------------------------14----12----------------------------------------
D|-----------------------------12----12-15-------------------------------------------------12-
A|--12-------------15-------------------------------------------------------------------------
E|--------------------------------------------------------------------------12----------------

                                  Am                         A        Am       F              
E|--------------------------------------------0-----0--0-----0--------------------------------
B|-----12-------13-13-13-13----12----13-13----------------------------12-13-12-------13----13-
G|--------14----------------------14-------------------------------------------14-------------
D|-----------12-------------------------------------------------------------------------------
A|--12----------------------------------------------------------0-----------------15----------
E|--------------------------------------------------------------------------------------------

          E                          Am                                  F                    
E|--------------------------------------------------------------------------------------------
B|--12-------12----12----0-----12-------------------------------12-13-12----13----13-13----13-
G|-----14-14----14----------------13-14----14----14----14----------------14----14-------------
D|--------------------------------------------------------------------------------------------
A|--------------------------------------------------------12----------------------------------
E|--------------------------------------------------------------------------------------------

          E                       Am                                  F                       
E|--------------------------------------------------------------------------------------------
B|--12----12----12-12-0--------------------------------------13-12----12-13----13-13----13-12-
G|--------------------------13-14-14-------------------------------14-------------------------
D|-----------------------------------------------16----16-------------------------------------
A|-----------------------------------12----12-------------------------------------------------
E|--------------------------------------------------------------------------------------------

          E                                               Am                                  
E|-----------------------------------------------------------------------------------------0--
B|--13----------12-12-12----12----12----12-12-13-12-12----12----------------------------------
G|-----15-14-------------------------------------------------------------------14-14----------
D|--------------------------------------------------------------------------------------------
A|-----------------------------------------------------------0--0-----0--0--------------------
E|-----------------------------------------------------------------------------------12-------

       Am 
E|--------
B|--------
G|--------
D|--------
A|-----0--
E|--------

Guitar Tabs for Johnny Guitar






                Am                      Dm                                           Am       
E|--YNNHOJ------------0-----------------------1--------------------------------------------0--------
B|--------------1-----------------------3--------------------------------------------1--------
G|--------------2-----------------------2--------------------------------------------2--------
D|--------------2-----------------------0--------------------------------------------2--------
A|--------------0--------------------------------------------------------------------0--------
E|--------------------------------------------------------------------------------------------

                               Dm                                        Am                      
E|-----------------------------1-----------------------------------------0-----------------------
B|-----------------------------3-----------------------------------------1-----------------------
G|-----------------------------2-----------------------------------------2-----------------------
D|-----------------------------0-----------------------------------------2-----------------------
A|-----------------------------------------------------------------------0-----------------------
E|-----------------------------------------------------------------------------------------------

          Dm                                                          Am                         
E|--------1-----------------------------------------------------------0--------------------------
B|--------3-----------------------------------------------------------1--------------------------
G|--------2-----------------------------------------------------------2--------------------------
D|--------0-----------------------------------------------------------2--------------------------
A|--------------------------------------------------------------------0--------------------------
E|-----------------------------------------------------------------------------------------------

                         F                                E                                      
E|-----------------------1--------------------------------0--------------------------------------
B|-----------------------1--------------------------------0--------------------------------------
G|-----------------------2--------------------------------1--------------------------------------
D|-----------------------3--------------------------------2--------------------------------------
A|-----------------------3--------------------------------2--------------------------------------
E|-----------------------1--------------------------------0--------------------------------------

       Am          G                                         F                                
E|-----0-----------3-----------------------------------------1--------------------------------
B|-----1-----------3-----------------------------------------1--------------------------------
G|-----2-----------4-----------------------------------------2--------------------------------
D|-----2-----------5-----------------------------------------3--------------------------------
A|-----0-----------5-----------------------------------------3--------------------------------
E|-----------------3-----------------------------------------1--------------------------------

                E                                         Am                            Dm       
E|--------------0-----------------------------------------0-----------------------------1--------
B|--------------0-----------------------------------------1-----------------------------3--------
G|--------------1-----------------------------------------2-----------------------------2--------
D|--------------2-----------------------------------------2-----------------------------0--------
A|--------------2-----------------------------------------0--------------------------------------
E|--------------0--------------------------------------------------------------------------------

             Am                                                       Dm                   Am 
E|-----------0--------------------------------------------------------1--------------------0--
B|-----------1--------------------------------------------------------3--------------------1--
G|-----------2--------------------------------------------------------2--------------------2--
D|-----------2--------------------------------------------------------0--------------------2--
A|-----------0-----------------------------------------------------------------------------0--
E|--------------------------------------------------------------------------------------------

                                           Dm                                                 
E|-----------------------------------------1--------------------------------------------------
B|-----------------------------------------3--------------------------------------------------
G|-----------------------------------------2--------------------------------------------------
D|-----------------------------------------0--------------------------------------------------
A|--------------------------------------------------------------------------------------------
E|--------------------------------------------------------------------------------------------

    Am                                  F                    E                          Am    
E|--0-----------------------------------1--------------------0--------------------------0-----
B|--1-----------------------------------1--------------------0--------------------------1-----
G|--2-----------------------------------2--------------------1--------------------------2-----
D|--2-----------------------------------3--------------------2--------------------------2-----
A|--0-----------------------------------3--------------------2--------------------------0-----
E|--------------------------------------1--------------------0--------------------------------

                      G           F                          E                                
E|--------------------3-----------1--------------------------0--------------------------------
B|--------------------3-----------1--------------------------0--------------------------------
G|--------------------4-----------2--------------------------1--------------------------------
D|--------------------5-----------3--------------------------2--------------------------------
A|--------------------5-----------3--------------------------2--------------------------------
E|--------------------3-----------1--------------------------0--------------------------------

    Am                               Dm                               Am          A           
E|--0--------------------------------1--------------------------------0-----------0-----------
B|--1--------------------------------3--------------------------------1-----------2-----------
G|--2--------------------------------2--------------------------------2-----------2-----------
D|--2--------------------------------0--------------------------------2-----------2-----------
A|--0-----------------------------------------------------------------0-----------0-----------
E|--------------------------------------------------------------------------------------------

                   Am                                              Dm                         
E|-----------------0-----------------------------------------------1--------------------------
B|-----------------1-----------------------------------------------3--------------------------
G|-----------------2-----------------------------------------------2--------------------------
D|-----------------2-----------------------------------------------0--------------------------
A|-----------------0--------------------------------------------------------------------------
E|--------------------------------------------------------------------------------------------

       A                                   Dm                                                 
E|-----0-----------------------------------1--------------------------------------------------
B|-----2-----------------------------------3--------------------------------------------------
G|-----2-----------------------------------2--------------------------------------------------
D|-----2-----------------------------------0--------------------------------------------------
A|-----0--------------------------------------------------------------------------------------
E|--------------------------------------------------------------------------------------------

       Am                                                 F                 E           Am       
E|-----0--------------------------------------------------1-----------------0-----------0--------
B|-----1--------------------------------------------------1-----------------0-----------1--------
G|-----2--------------------------------------------------2-----------------1-----------2--------
D|-----2--------------------------------------------------3-----------------2-----------2--------
A|-----0--------------------------------------------------3-----------------2-----------0--------
E|--------------------------------------------------------1-----------------0--------------------

                G                 F     E              Am          Dm                Am          
E|--------------3-----------------1-----0--------------0-----------1-----------------0-----------
B|--------------3-----------------1-----0--------------1-----------3-----------------1-----------
G|--------------4-----------------2-----1--------------2-----------2-----------------2-----------
D|--------------5-----------------3-----2--------------2-----------0-----------------2-----------
A|--------------5-----------------3-----2--------------0-----------------------------0-----------
E|--------------3-----------------1-----0--------------------------------------------------------

                                     Dm                Am                   Dm                
E|-----------------------------------1-----------------0--------------------1-----------------
B|-----------------------------------3-----------------1--------------------3-----------------
G|-----------------------------------2-----------------2--------------------2-----------------
D|-----------------------------------0-----------------2--------------------0-----------------
A|-----------------------------------------------------0--------------------------------------
E|--------------------------------------------------------------------------------------------

                                  Am                         A        Am       F              
E|--------------------------------0--------------------------0--------0--------1--------------
B|--------------------------------1--------------------------2--------1--------1--------------
G|--------------------------------2--------------------------2--------2--------2--------------
D|--------------------------------2--------------------------2--------2--------3--------------
A|--------------------------------0--------------------------0--------0--------3--------------
E|-----------------------------------------------------------------------------1--------------

          E                          Am                                  F                    
E|--------0--------------------------0-----------------------------------1--------------------
B|--------0--------------------------1-----------------------------------1--------------------
G|--------1--------------------------2-----------------------------------2--------------------
D|--------2--------------------------2-----------------------------------3--------------------
A|--------2--------------------------0-----------------------------------3--------------------
E|--------0--------------------------------------------------------------1--------------------

          E                       Am                                  F                       
E|--------0-----------------------0-----------------------------------1-----------------------
B|--------0-----------------------1-----------------------------------1-----------------------
G|--------1-----------------------2-----------------------------------2-----------------------
D|--------2-----------------------2-----------------------------------3-----------------------
A|--------2-----------------------0-----------------------------------3-----------------------
E|--------0-----------------------------------------------------------1-----------------------

          E                                               Am                                  
E|--------0-----------------------------------------------0-----------------------------------
B|--------0-----------------------------------------------1-----------------------------------
G|--------1-----------------------------------------------2-----------------------------------
D|--------2-----------------------------------------------2-----------------------------------
A|--------2-----------------------------------------------0-----------------------------------
E|--------0-----------------------------------------------------------------------------------

       Am 
E|-----0--
B|-----1--
G|-----2--
D|-----2--
A|-----0--
E|--------

tabs and chords, guitar tabs, music transcription, music technology, deep learning, music information retrieval, transcribe into tabs & chords, chordify, music renditions, songsterr, reverbnation, tabulature, bollywood chords, ultimate guitar, yousician, guitar lessons, acoustic guitar, electric guitar, guitar tuner, 911 tabs