Guitar Tabs for Jiyuu No Tsubasa

(/) Slide Up  (\) Slide Down  (h) Hammer On  (p) Pull Off  (b) Bend (r) Release (v) Vibrato (x) Muted

Tabs for Song : 
BPM : 200

Song lyrics here 
E|--
B|--
G|--
D|--
A|--
E|--

Song lyrics here 
E|--
B|--
G|--
D|--
A|--
E|--

Use manual mode to free up cursor. Paste any tab in acousterr tab maker and we'll play it !!!
e|--------------------------------------------------------------------------------------
B|--------------------------------------------------------------------------------------
G|--------11----------9--------------------------------------------------------9--------
D|--11----------11-------12-11-9-----7--9-----11----12-11-------11----12-11----------9--
A|-----------------------------------------------------------9--------------------------
E|--------------------------------------------------------------------------------------

e|-----------------------------------------------------------------------------------------
B|-----------------------------------------------------------------------------------------
G|--9-----------9-----12-------------------------------------------------------------------
D|-----------9--------------11-11----12----9--11-------------7--9--11-11-11-12----9--11----
A|--------------------------------------------------11----11-------------------------------
E|-----------------------------------------------------------------------------------------

e|-----------------------------------------------------------------------------------------------
B|-----------------------------------------------------------------------------------------------
G|-----------------------11----14----13----11-9--------------------------------------------------
D|-----------7--9--11-------------------------------12-11----11----12----11-11----9--9-----9--11-
A|--11----11-------------------------------------------------------------------------------------
E|-----------------------------------------------------------------------------------------------

e|-----------------------------------------------------------------------------------------
B|-----------------------------------------------------------------------------------------
G|-----11----14----16----14-13----11-11-9--11-9-----14-16-17-18-18-18-19----16----18-------
D|-----------------------------------------------------------------------------------11----
A|-----------------------------------------------------------------------------------------
E|-----------------------------------------------------------------------------------------

e|-----------------------------------------------------------------------------------------------
B|-----------------------------------------------------------------------------------------------
G|--11----14----13----11-9-----------------9--14----18----18----16----14----13----------11----14-
D|-----------------------------12-11----11----------------------------------------11-------------
A|-----------------------------------------------------------------------------------------------
E|-----------------------------------------------------------------------------------------------

e|-----------------------------------------------------------------------------------
B|-----------------------------------------------------------------------------------
G|--16----14-13----11-11-9--11-9-----14-16-17-18-18-18-19----16----18-------11----14-
D|--------------------------------------------------------------------11-------------
A|-----------------------------------------------------------------------------------
E|-----------------------------------------------------------------------------------

e|-----------------------------------------------------------------------------
B|-----------------------------------------------------------------------------
G|--13----14-14-13-11-13-13----11-11-------------------------------------------
D|-----------------------------------------------------------------------------
A|-----------------------------------------------------------------------------
E|-----------------------------------------------------------------------------
tabs and chords, guitar tabs, music transcription, music technology, deep learning, music information retrieval, transcribe into tabs & chords, chordify, music renditions, songsterr, reverbnation, tabulature, bollywood chords, ultimate guitar, yousician, guitar lessons, acoustic guitar, electric guitar, guitar tuner, 911 tabs