Guitar Tabs for Jeene Laga Hoon - Atif Aslam Tabs

(/) Slide Up  (\) Slide Down  (h) Hammer On  (p) Pull Off  (b) Bend (r) Release (v) Vibrato

Tabs for Song : Jeene Laga Hoon

Intro
E|--------------------------------------------------8--
B|--8--10-11-10----8--10-11-10----8--10-11-10----8-----
G|--------------10-------------10-------------10-------
D|-----------------------------------------------------
A|-----------------------------------------------------
E|-----------------------------------------------------

Intro
E|--------------------------
B|--11-10-8--10-11-10----8--
G|--------------------10----
D|--------------------------
A|--------------------------
E|--------------------------

Main Mera Dil Aur Tum Ho Yahaan
E|--------------------------------------
B|--8-----8--10----8--10-11----10-8--10-
G|-----7--------------------------------
D|--------------------------------------
A|--------------------------------------
E|--------------------------------------

Fir Kyun Ho Palkein Jhukaye Waha
E|--------------------------------------
B|--8-----8--10----8--10-11----10-8--8--
G|-----7--------------------------------
D|--------------------------------------
A|--------------------------------------
E|--------------------------------------

Tum Saahasee Pehle Dekha Nahin
Tum Isse Pehle The Jane Kahaan (Same As Previous Part)

Jeene Laga Hoon Pehle Se Zyada
E|--10-15-13-11-10----10-10-15-13-11-10-
B|--------------------------------------
G|--------------------------------------
D|--------------------------------------
A|--------------------------------------
E|--------------------------------------

Pehle Se Zyada Tum Pe Marne Laga
E|--10-10-15-13-11-10----10-10-8--11-10-8--------
B|-----------------------------------------11-10-
G|-----------------------------------------------
D|-----------------------------------------------
A|-----------------------------------------------
E|-----------------------------------------------

Again Repeat Intro Part.
tabs and chords, guitar tabs, music transcription, music technology, deep learning, music information retrieval, transcribe into tabs & chords, chordify, music renditions, songsterr, reverbnation, tabulature, bollywood chords, ultimate guitar, yousician, guitar lessons, acoustic guitar, electric guitar, guitar tuner, 911 tabs