Ukulele Tabs for Jana Gana Mana

Jana-gana-mana-adhinayaka, jaya he
A|-----------------------------------------------------
E|-----------------------------------------------------
C|--2--4---4/6--6--6--6--6--6--6--6--6--4--6---6/7-----
G|-----------------------------------------------------

Bharata-bhagya-vidhata
A|-----------------------------------------
E|-----------------------------------------
C|-----6-----6--6--4-----4--1--1--4--2-----
G|-----------------------------------------

Punjab-Sindh-Gujarat-Maratha 
A|--------------------------------------------------
E|------3/5--5--5-----5--5--4--5-----5--4--4--7--5--
C|--2-----------------------------------------------
G|--------------------------------------------------

Dravida-Utkala-Banga
A|--------------------------------------
E|---2/3--3--3--3-----3--2-----3--2-----
C|--------------------------4-----------
G|--------------------------------------

Vindhya-Himachala-Yamuna-Ganga 
A|--------------------------------------------------
E|--2-----2--2--2-----2-----5--5--5--3--3-----3-----
C|-----------------------4--------------------------
G|--------------------------------------------------

Uchchala-Jaladhi-taranga
A|--------------------------------------------
E|--2-----2--2--2-----------------------------
C|-----------------4--4--4-----1--1--4--2-----
G|--------------------------------------------

Tava shubha name jage, 
A|--------------------------------------
E|--------2--2--2-----2--3-----2--3-----
C|--2--4--------------------4-----------
G|--------------------------------------

Tava shubha asisa mage, 
A|-----------------------------------
E|--2--3--5--5--5-----3--2-----3--2--
C|--------------------------4--------
G|-----------------------------------

Gahe tava jaya gatha, 
A|--------------------------------------
E|--2-----2--2--------------------------
C|--------------4--4--4--1--1--4--2-----
G|--------------------------------------

Jana-gana-mangala-dayaka jaya he 
A|--------------------------------------------------
E|---3/5--5--5--5--5-----5--4--5-----5--4--4--7--5--
C|--------------------------------------------------
G|--------------------------------------------------

Bharata-bhagya-vidhata
A|-----------------------------------------
E|---2/3--3--3--3-----3-----2-----3--2-----
C|-----------------------------4-----------
G|-----------------------------------------

Jaya he, jaya he, jaya he
A|-----5--4--5-----4--2--4-----2--0--2--
E|--------------------------------------
C|--------------------------------------
G|--------------------------------------

Jaya jaya jaya, jaya he! 
A|--------------------------------
E|--------------------------------
C|--2--4--6--6--6--6--4--6---6/7--
G|--------------------------------
tabs and chords, guitar tabs, music transcription, music technology, deep learning, music information retrieval, transcribe into tabs & chords, chordify, music renditions, songsterr, reverbnation, tabulature, bollywood chords, ultimate guitar, yousician, guitar lessons, acoustic guitar, electric guitar, guitar tuner, 911 tabs