Guitar Tabs for Jag ghoomeyan

Tabs for Song : Jag Ghoomeyan

na wo ankhiyan ruhani kahin
E|-----------------------------------------
B|-----------2--2--------------------------
G|--4--4--4-----------4--1--------4--1-----
D|--------------------------4--------------
A|-----------------------------------------
E|-----------------------------------------

na wo chehra noorani kahin
E|--------------------------------------------
B|-----------2--2-----------------------------
G|--4--4--4-----------4--1--------1-----------
D|--------------------------4--------4--4-----
A|--------------------------------------------
E|--------------------------------------------

kahin dil wali batein bhi na
E|-----------------------------------------
B|-----------2--2--------------------------
G|--4--4--4-----------4--1--------4--1-----
D|--------------------------4--------------
A|-----------------------------------------
E|-----------------------------------------

na wo sajri jawani kahin
E|--------------------------------------------
B|-----------2--2-----------------------------
G|--4--4--4-----------4--1--------1-----------
D|--------------------------4--------4--4-----
A|--------------------------------------------
E|--------------------------------------------

jag ghoomeya tharre jaisa na koi
E|-----------------------------------------------------------------
B|--------------------------2--0-----------------------------------
G|--1--1--1--1--------1--1-----------1--------------------1--1-----
D|--------------4-----------------------4--4--4--2--4--2-----------
A|-----------------------------------------------------------------
E|-----------------------------------------------------------------

jag ghoomeya tharre jaisa na koi
E|-----------------------------------------------------------
B|--------------------------2--0-----------------------------
G|--1--1--1--1--------1--1-----------1-----------------------
D|--------------4-----------------------4--4--4--2--4--4-----
A|-----------------------------------------------------------
E|-----------------------------------------------------------

na to hasna roomani kahin
E|--------------------------------------------
B|-----------2--2-----------------------------
G|--4--4--4-----------4--1--------4--1--1-----
D|--------------------------4-----------------
A|--------------------------------------------
E|--------------------------------------------

na wo khusboo suhani kahin

E|--------------------------------------------
B|-----------2--2-----------------------------
G|--4--4--4-----------4--1--------1-----------
D|--------------------------4--------4--4-----
A|--------------------------------------------
E|--------------------------------------------

na wo rangli adayein dekhin
E|--------------------------------------------
B|-----------2--2-----------------------------
G|--4--4--4-----------4--1--------4--1--1-----
D|--------------------------4-----------------
A|--------------------------------------------
E|--------------------------------------------

na wo pyari si nadani kahini 
E|--------------------------------------------
B|-----------2--2-----------------------------
G|--4--4--4-----------4--1--------1-----------
D|--------------------------4--------4--4-----
A|--------------------------------------------
E|--------------------------------------------

jaisi tu hai waisi rahna
E|--------0-----------------------------
B|--0--4--------4--0--------------------
G|--------------------1--1--0-----0-----
D|--------------------------------------
A|--------------------------------------
E|--------------------------------------

jag ghoomeya tharre jaisa na koi
E|-----------------------------------------------------------------
B|--------------------------2--0-----------------------------------
G|--1--1--1--1--------1--1-----------1--------------------1--1-----
D|--------------4-----------------------4--4--4--2--4--2-----------
A|-----------------------------------------------------------------
E|-----------------------------------------------------------------

jag ghoomeya tharre jaisa na koi
E|-----------------------------------------------------------
B|--------------------------2--0-----------------------------
G|--1--1--1--1--------1--1-----------1-----------------------
D|--------------4-----------------------4--4--4--2--4--4-----
A|-----------------------------------------------------------
E|-----------------------------------------------------------
tabs and chords, guitar tabs, music transcription, music technology, deep learning, music information retrieval, transcribe into tabs & chords, chordify, music renditions, songsterr, reverbnation, tabulature, bollywood chords, ultimate guitar, yousician, guitar lessons, acoustic guitar, electric guitar, guitar tuner, 911 tabs