Guitar Tabs for Jab Koi Baat Bigar Jaye(c Chord Shape Lead)

(/) Slide Up  (\) Slide Down  (h) Hammer On  (p) Pull Off  (b) Bend (r) Release (v) Vibrato (x) Muted

Tabs for Song : 

jab koi baat bigar jaye
jab koi mushkil par jaye
E|-----------------------------------------------
B|-----------------------------------------------
G|--------2--2--0-----2-----0-----0--2--0--------
D|--3--3-----------3-----------3-----------3--0--
A|-----------------------------------------------
E|-----------------------------------------------

Tum dena saath mera
ooo humnava
E|--------------------------------------------
B|--------------------------------------------
G|--------0--2--0-----------------------------
D|--0--3-----------3--0-----------0--3--0--3--
A|-----------------------3-----3--------------
E|--------------------------------------------


repeat the same thing twice


music (twice)


E|-----------------------------------------------------------------------------
B|--------------------------------------------------------------------1--------
G|--2-----2--0--2-----2--2--2--2--0--2-----2-----2--------2--2--0--2-----0--2--
D|-----3-----------3--------------------3-----3--------------------------------
A|-----------------------------------------------------------------------------
E|-----------------------------------------------------------------------------


ho chandni jab tak raat
deta hai har koi saath

E|--------------------------------------------1--------------
B|--1--0--1--1--0--1--1--0--1-----1--1--1--1-----3--1--------
G|-----------------------------------------------------3--3--
D|-----------------------------------------------------------
A|-----------------------------------------------------------
E|-----------------------------------------------------------

tum magar andhero me
na chorna mera haath


E|--------------------------------------------------------------
B|-----3--3--3-----3--3--4--4--1-----1-----------1--1-----------
G|--3-----------------------------------0--0--0--------3--2--2--
D|--------------------------------------------------------------
A|--------------------------------------------------------------
E|--------------------------------------------------------------

again na chorna mera hath


E|-----------------------------
B|--------------1--1-----------
G|--0--0--0--0--------3--2--2--
D|-----------------------------
A|-----------------------------
E|-----------------------------

again repeat
ho chandni jab tak raat
deta hai har koi sath
tum magar andehron me
na chorna mera haath

na koi hai na koi tha
zindagi me tmhare seeva


E|--------------------------------------------------------
B|--------------------------------------------------------
G|-----------2--2--0-----2-----0--0-----0--2--0-----------
D|--3--3--3-----------3--------------3-----------3--0--0--
A|--------------------------------------------------------
E|--------------------------------------------------------

again tum dena saath mera
oo humnava

then again
jab koi bat bigar jaye
jab koi mushkil par jaye
tum dena saath mera

ooo humnavaaa


E|-----------------1--------
B|--------------3-----3--1--
G|--3--3--2--3--------------
D|--------------------------
A|--------------------------
E|--------------------------


hey guys if this tabs is helpful for you so
please subscribe to my Youtube channel and also
like my Facebook page
do likes and give me your precious feedback
tabs and chords, guitar tabs, music contests, music covers, songsterr, reverbnation, renditions, tabulature, bollywood chords, ultimate guitar, yousician, guitar lessons, torrins, fender, gibson, acoustic guitar, electric guitar, youtube covers, gootar, guitar tuner, A-Z tabs, 911 tabs