Guitar Tabs for Jab koi baat bigad jaaye

Tabs for Song :Jab Koi Baat Bigad Jaye

jab koi baat bigad jaye
E|-----------------------------
B|--------1--------------1-----
G|--3--1--------3--3--1--------
D|-----------------------------
A|-----------------------------
E|-----------------------------

aur koi mushkil aa jaye
E|--------------------------
B|-----------1--------------
G|--3--1--3-----3--1--3-----
D|--------------------------
A|--------------------------
E|--------------------------

tum dena sath mera

E|-----------------------------
B|-----------1-----------------
G|-----1--3-----3--1-----------
D|--3-----------------3--1-----
A|-----------------------------
E|-----------------------------

oo..  humnavaa
E|--------------------
B|--------------------
G|--------1-----1-----
D|--1--3-----3--------
A|--------------------
E|--------------------

na koi hai na koi tha
E|--------------------------------------
B|--------------1-----1-----------1-----
G|--3-----1--1-----------3-----1--------
D|--------------------------------------
A|--------------------------------------
E|--------------------------------------

jindgi mein tumhare siwaaa
E|--------------------------------------
B|--7--7--5--7-----9--7--5--5--5--2-----
G|--------------------------------------
D|--------------------------------------
A|--------------------------------------
E|--------------------------------------

tum dena sath mera
E|-----------------------------
B|-----------1-----------------
G|-----1--3-----3--1-----------
D|--3-----------------3--1-----
A|-----------------------------
E|-----------------------------

oo..  humnavaa
E|--------------------
B|--------------------
G|--------1-----1-----
D|--1--3-----3--------
A|--------------------
E|--------------------
tabs and chords, guitar tabs, music contests, music covers, songsterr, reverbnation, renditions, tabulature, bollywood chords, ultimate guitar, yousician, guitar lessons, torrins, fender, gibson, acoustic guitar, electric guitar, youtube covers, gootar, guitar tuner, A-Z tabs, 911 tabs