Guitar Tabs for Jab Koi Baat Bigad Jaaye - Atif Aslam Tabs

(/) Slide Up  (\) Slide Down  (h) Hammer On  (p) Pull Off  (b) Bend (r) Release (v) Vibrato (x) Muted

Tabs for Song : Jab Koi Baat Bigad Jaaye

Jab koi baat bigad jaaye Jab koi mushkil pad jaaye
E|-----------5--5--------5--------------5-----------
B|--6--6--6--------8--6-----8--6--6--8-----8--6-----
G|-----------------------------------------------7--
D|--------------------------------------------------
A|--------------------------------------------------
E|--------------------------------------------------

Tum dena saath mera o humnava
E|-----------5-----------------------------
B|-----6--8-----8--6--------------6--------
G|--7-----------------7--5--5--7------7/10-
D|-----------------------------------------
A|-----------------------------------------
E|-----------------------------------------

Jab koi baat bigad jaaye Jab koi mushkil pad jaaye
E|--------------------------------------------------
B|-----------10-10-------10-------------10----------
G|--10-10-10-------12-10----12-10-10-12----12-10----
D|-----------------------------------------------12-
A|--------------------------------------------------
E|--------------------------------------------------

Tum dena saath mera o humnava
E|-----------------------------------------
B|-----------10----------------------------
G|-----10-12----12-10-------------10----10-
D|--12----------------12-10-10-12----12----
A|-----------------------------------------
E|-----------------------------------------

Ho chaandni jab tak raat Deta hai har koi saath
E|-----------------------------------------10-10----------
B|--13-12-13-13-12-13-13-12-13-13-12-13-13-------13-11-11-
G|--------------------------------------------------------
D|--------------------------------------------------------
A|--------------------------------------------------------
E|--------------------------------------------------------

Tum magar andheron mein Na chhodna mera haath
E|-----10-10-10-10-10-10-11-11-10-10-------------------------
B|--11-------------------------------13-13-------13-11-10-10-
G|-----------------------------------------12-12-------------
D|-----------------------------------------------------------
A|-----------------------------------------------------------
E|-----------------------------------------------------------

Na koi hai, na koi tha Zindagi mein tumhare siva
E|-----------5--5--------5--------------5--------------
B|--6--6--6--------8--6-----8--8--6--8-----8--6--8-----
G|--------------------------------------------------7--
D|-----------------------------------------------------
A|-----------------------------------------------------
E|-----------------------------------------------------

Tum dena sath mera o humnava (Like Previous One)..
tabs and chords, guitar tabs, music contests, music covers, songsterr, reverbnation, renditions, tabulature, bollywood chords, ultimate guitar, yousician, guitar lessons, torrins, fender, gibson, acoustic guitar, electric guitar, youtube covers, gootar, guitar tuner, A-Z tabs, 911 tabs