Guitar Tabs for Ivy Intro

(/) Slide Up  (\) Slide Down  (h) Hammer On  (p) Pull Off  (b) Bend (r) Release (v) Vibrato (x) Muted

Tabs for Song : Ivy Intro

E|-----------3-----------3-----------------------5-----------5--------------------------------------
B|-----5-----------5-----------------------6-----------6-----------------------------5-----------5--
G|--5-----5-----5-----5-----------------7-----7-----7-----7--------------------5-----------5--------
D|--------------------------------------------------------------------------7-----7-----7-----7-----
A|--------------------------------------------------------------------------------------------------
E|--------------------------------------------------------------------------------------------------

E|-----------10----------10-
B|-----10----------10-------
G|--10----10----10----10----
D|--------------------------
A|--------------------------
E|--------------------------

tabs and chords, guitar tabs, music contests, music covers, songsterr, reverbnation, renditions, tabulature, bollywood chords, ultimate guitar, yousician, guitar lessons, torrins, fender, gibson, acoustic guitar, electric guitar, youtube covers, gootar, guitar tuner, A-Z tabs, 911 tabs