Iv Of Spades - Come Inside Of My Heart (solo Tabs) - Guitar Tabs

(/) Slide Up  (\) Slide Down  (h) Hammer On  (p) Pull Off  (b) Bend (r) Release (v) Vibrato (x) Muted

Tabs for Song : 
BPM : 200

Song lyrics here 
E|-----------------------------------
B|--10-11-10----------10-11-10-------
G|-----------7--10-7-----------7--10-
D|-----------------------------------
A|-----------------------------------
E|-----------------------------------

E|-----------------------------------
B|--10-11-10----------10-11-10-------
G|-----------7--10-7-----------7--10-
D|-----------------------------------
A|-----------------------------------
E|-----------------------------------

E|-----------------------------------
B|--13h15-13h15-13-11----------------
G|--------------------12b10-------10-
D|--------------------------10/12----
A|-----------------------------------
E|-----------------------------------

E|--
B|--
G|--
D|--
A|--
E|--

Song lyrics here 
E|--
B|--
G|--
D|--
A|--
E|--

Use manual mode to free up cursor. Paste any tab in acousterr tab maker and we'll play it !!!

About IV of Spades discography : IV of Spades has released one studio album, twelve singles, four promotional singles and eleven music videos . The group consist of vocalist and bassist Zild Benitez, It had a contribution from notable artists like Zild Benitez,Blaster Silonga,Badjao de Castro.

tabs and chords, guitar tabs, music transcription, music technology, deep learning, music information retrieval, transcribe into tabs & chords, chordify, music renditions, songsterr, reverbnation, tabulature, bollywood chords, ultimate guitar, yousician, guitar lessons, acoustic guitar, electric guitar, guitar tuner, 911 tabs