Itni Shakti - Guitar Tabs

Itni shakti hume dena data
E|--1--1--0-----1--1-----1--1-----1--0--1--3--
B|--------------------------------------------
G|--------------------------------------------
D|--------------------------------------------
A|--------------------------------------------
E|--------------------------------------------

Man ka vishwas kamzor ho na 
E|--------3--3-----4--3-----1--3-----1--
B|--1--1--------------------------------
G|--------------------------------------
D|--------------------------------------
A|--------------------------------------
E|--------------------------------------

Hum chale ek raste se humse
E|--5-----5--5-----5-----5--5--6--3--------
B|-----------------------------------4--2--
G|-----------------------------------------
D|-----------------------------------------
A|-----------------------------------------
E|-----------------------------------------

Bhul kar bhi koi bhul ho na
E|--------------------0-----0-----3--3-----1--
B|--1-----1--1-----1--------------------------
G|-----3--------------------------------------
D|--------------------------------------------
A|--------------------------------------------
E|--------------------------------------------

Itni shakti hume dena data
E|--1--1--0-----1--1-----1--1-----1--0--1--3--
B|--------------------------------------------
G|--------------------------------------------
D|--------------------------------------------
A|--------------------------------------------
E|--------------------------------------------

Man ka vishwas kamzor ho na 
E|--------3--3-----4--3-----1--3-----1--
B|--1--1--------------------------------
G|--------------------------------------
D|--------------------------------------
A|--------------------------------------
E|--------------------------------------


Door agyan ke ho andhere
E|--8-----8--8--8-----8--8--------------8--
B|--------------------------6-----8--9-----
G|-----------------------------------------
D|-----------------------------------------
A|-----------------------------------------
E|-----------------------------------------

Tu hume gyan ki roshini de
E|--8--8--6-----6--------10----10-11-10-8--
B|-----------------9--8--------------------
G|-----------------------------------------
D|-----------------------------------------
A|-----------------------------------------
E|-----------------------------------------

Har burai se bachke rahe hum
E|--8-----8--8--8-----8--8--------------8--
B|--------------------------6-----8--9-----
G|-----------------------------------------
D|-----------------------------------------
A|-----------------------------------------
E|-----------------------------------------

Jitni bhi de bhali zindagi de
E|--8--8--9--8-----6-----------------------
B|--------------------9--8-----6--6--9--8--
G|-----------------------------------------
D|-----------------------------------------
A|-----------------------------------------
E|-----------------------------------------

About Jaswinder Singh (singer) - Jaswinder Singh is a new age Ghazal singer from India . He is the son and student of Kuldip Singh, composer of ghazals such as ‘Tumko dek Saregama-HMV, one of the biggest music archives in India, launched his music album "Ish Jaswinder Singh specializes in Sufi and Punjabi songs . He has performed over 300 live concerts in USA, Canada, UK, Malaysia, Singapore, Dubai and Muscat . Jaswinder Singh (singer)'s most popular songs include - Itni Shakti Hame De Na Daata. Jaswinder Singh (singer) had an affiliation to band(s) - Jaswinder Singh. Jaswinder Singh (singer)'s music is influenced by genre(s) - ghazals.

tabs and chords, guitar tabs, music transcription, music technology, deep learning, music information retrieval, transcribe into tabs & chords, chordify, music renditions, songsterr, reverbnation, tabulature, bollywood chords, ultimate guitar, yousician, guitar lessons, acoustic guitar, electric guitar, guitar tuner, 911 tabs