Guitar Tabs for We Are The Champions

we are the champions:


E|--------------------------------------------------------------------
B|--------1--1-----------1--1-----------1--1-----------3--1--------1--
G|--0--3-----------0--3-----------0--3--------0-----0--------3--5-----
D|--------------------------------------------------------------------
A|--------------------------------------------------------------------
E|--------------------------------------------------------------------

E|--------------------------------------------1--1--3--3--5--5--6--6--
B|-----3--4--4--------3--4--4--------3--4--4--------------------------
G|--3--------------3--------------3-----------------------------------
D|--------------------------------------------------------------------
A|--------------------------------------------------------------------
E|--------------------------------------------------------------------

E|--1--0--1--0-----------------------1--3--5--8--5-----1--------------
B|--------------1--3--3-----------1-----------------3-----3-----------
G|-----------------------2--2-----------------------------------------
D|--------------------------------------------------------------------
A|--------------------------------------------------------------------
E|--------------------------------------------------------------------




tabs and chords, guitar tabs, music transcription, music technology, deep learning, music information retrieval, transcribe into tabs & chords, chordify, music renditions, songsterr, reverbnation, tabulature, bollywood chords, ultimate guitar, yousician, guitar lessons, acoustic guitar, electric guitar, guitar tuner, 911 tabs