Guitar Tabs for We Are The Champions

E|--------------------6--5--6--5--3-----5--1--6--5--1-----
B|--3--1--3--1--------------------------------------------
G|--------------3-----------------------------------------
D|--------------------------------------------------------
A|--------------------------------------------------------
E|--------------------------------------------------------

E|--6--4--1--6--4--1-----------1-----
B|-----------------------4--1--------
G|-----------------------------------
D|-----------------------------------
A|-----------------------------------
E|-----------------------------------





tabs and chords, guitar tabs, music transcription, music technology, deep learning, music information retrieval, transcribe into tabs & chords, chordify, music renditions, songsterr, reverbnation, tabulature, bollywood chords, ultimate guitar, yousician, guitar lessons, acoustic guitar, electric guitar, guitar tuner, 911 tabs