Guitar Tabs for Iron Maiden - Wasting Love (guitar Solo)

Iron Maiden - Wasting Love (Guitar Solo)

1st Part
E|-----------------------------------------------------------------------
B|--15b------------------------12----12----------------------------------
G|--14b16r14----12----12-------12----12--7b-9r7---5\4---5p4--------------
D|-----------------14-------14-------------------------------7--5---5/7--
A|-----------------------------------------------------------------------
E|-----------------------------------------------------------------------

2nd Part
E|-----15----14----12-------------------
B|--12----12----12----12-15b17-15-13-12-
G|--------------------------------------
D|--------------------------------------
A|--------------------------------------
E|--------------------------------------

3rd Part
E|-----12----14----15----14----15----17----17b19-
B|--12----12----12----12----12----12----15-------
G|-----------------------------------------------
D|-----------------------------------------------
A|-----------------------------------------------
E|-----------------------------------------------

4th Part
E|--17-19-17-15-14-15----17b19r17----15-14----
B|-----------------------------------------15-
G|--------------------------------------------
D|--------------------------------------------
A|--------------------------------------------
E|--------------------------------------------

5th Part
E|--17b19r17-15p14-15p14-------------------
B|--------------------------17-15-15/17-15-
G|-----------------------------------------
D|-----------------------------------------
A|-----------------------------------------
E|-----------------------------------------

6th Part
E|-----15p14----------------------------
B|--12-------15-13-12-13p12-------------
G|--------------------------14-12p11-12-
D|--------------------------------------
A|--------------------------------------
E|--------------------------------------

7th Part
E|-----12----14----15----17----17b19----19-19-19----17-
B|--12----12----12----12----12-------------------------
G|-----------------------------------------------------
D|-----------------------------------------------------
A|-----------------------------------------------------
E|-----------------------------------------------------
tabs and chords, guitar tabs, music transcription, music technology, deep learning, music information retrieval, transcribe into tabs & chords, chordify, music renditions, songsterr, reverbnation, tabulature, bollywood chords, ultimate guitar, yousician, guitar lessons, acoustic guitar, electric guitar, guitar tuner, 911 tabs