Bass Tabs for Iron Maiden - Wasting Love

Iron Maiden - Wasting Love

Intro
G|--------5-----7-----9-----5-----7-----------------------------
D|--------5-----7-----9-----5-----7-----9--7--------------------
A|--7-----3-----5-----7-----3-----5-----------10-9--10-9--7--5--
E|--0-----------------------------------------------------------

G|--9-----5-----7--------------------------9-----5-----7-----5--5-----7--7--------
D|--9-----5-----7--9--7--------------------9-----5-----7-----5--5-----7--7--------
A|--7-----3-----5--------10-9--10-9--7--5--7-----3-----5-----3--3-----5--5--------
E|--0--------------------------------------0-----------------------------------0--

G|--------------12----------------------------------
D|--------12-14----14-12-12/14----12-14-12----------
A|-----------------------------------------14-12-7--
E|--0--------------------------------------------0--

Verse
G|-----------------------------------------------------------------------------
D|-----------------------------------------------------5----------------------- 2X
A|-----------------------------------5--7--------5--7-----7--5--------5--7-----
E|--0-----0-----0-----0-----5--------------5--------------------0-----------0--

Chorus
G|--9--------------5--------------7--------------------------
D|--9--------------5--------------7--------------------------
A|--7--7--7--7--7--3--3--3--3--3--5--5--5--5--5--------------
E|-----------------------------------------------3--3--1--1--

G|--9--------------5--------------7--------------------------------------
D|--9--------------5--------------7--------------------------------------
A|--7--7--7--7--7--3--3--3--3--3--5--5--5--5--5--------------------------
E|-----------------------------------------------3--3--3--3--2--2--2--2--

G|--9--------------5--------------7-----------------------5--5--
D|--9--------------5--------------7-----------------------5--5--
A|--7--7--7--7--7--3--3--3--3--3--5--5--5--5--5--5--5-----3--3--
E|-----------------------------------------------3--3-----------

G|--9--------------5--------------7--------------5-----------
D|--9--------------5--------------7--------------5-----------
A|--7--7--7--7--7--3--3--3--3--3--5--5--5--5--5--3--3--3--3--
E|-----------------------------------------------------------

Pos-Chorus
G|--------------------------------------------------------------------------------
D|-----------------------------------------10h12-10-------------10h12-10----------
A|--5--3---------------3h5--3-----------------------12-10----------------12-10----
E|--------5--3--0--------------5--3--0--------------------12-------------------12-

Pre-Solo
G|------------------------------------7\
D|--------4-----5--4--------4--5--4-----  4x
A|-----2-----2--------2--3--------------
E|--0-----------------------------------

Guitar Solo
G|--------------------------------------------7--7--4--4--
D|--------------------------------------------7--7--4--4--  4x	
A|--7--7--7--7--7--3--3-----------------------5--5--2--2--
E|--------------------------5--5--5--5--5-----------------

Ending 
G|--7--------5-----------------9--
D|--7--------5-----------------9--
A|--5--------3--5--3-----------7--
E|--------------------5--3--0-----








    




tabs and chords, guitar tabs, music contests, music covers, songsterr, reverbnation, renditions, tabulature, bollywood chords, ultimate guitar, yousician, guitar lessons, torrins, fender, gibson, acoustic guitar, electric guitar, youtube covers, gootar, guitar tuner, A-Z tabs, 911 tabs