Guitar Tabs for Interstellar Theme

(/) Slide Up  (\) Slide Down  (h) Hammer On  (p) Pull Off  (b) Bend (r) Release (v) Vibrato (x) Muted

Tabs for Song : 
BPM : 200



Song lyrics here 
E|--------------------------------------5--------------7-----------------------------------5-----7-----8--
B|--5-----5-----5-----5-----5-----5-----5--5-----5-----5-----5-----5-----5-----5-----5-----5-----5-----5--
G|-----5-----5-----5-----5-----5-----5--------5-----5-----7-----7-----7-----7-----7-----7-----5-----7-----
D|--------------------------------------7--------------9-----------------------------------7-----9-----10-
A|--------------------------------------------------------------------------------------------------------
E|--------------------------------------------------------------------------------------------------------

E|-----7-----5-----7-----8-----------------7-----------------------------------0-----0-----0-----0-----0--
B|-----5-----5-----5-----5-----5-----5-----5-----5-----5-----5-----5-----5--------1-----1-----1-----3-----
G|--5-----7-----5-----7-----5-----5-----5-----7-----7-----7-----7-----7-----7--2-----------------4--------
D|-----9-----7-----9-----10----------------9--------------------------------------------------------------
A|-----------------------------------------------------------------------------0-----------------2--------
E|--------------------------------------------------------------------------------------------------------

E|-----0-----0-----0-----0--------
B|--3-----3-----3-----3-----3-----
G|--------------------------------
D|--------------------------------
A|--------------------------------
E|--------------------------------

E|--0-----5-----0-----0-----0-----0-----0-----0-----0-----0-----0-----0-----------0-----------0-----------
B|-----1-----3-----1-----3-----1-----3-----1-----1-----1-----3-----3-----0--------------------------0-----
G|--2-----4-----5-----4-----2-----4-----5-----------------4-----------------2--------2--2--------2-----0--
D|-----------------------------------------------------------------------------2-----------2--------0-----
A|--0-----2-----3-----2-----0-----2-----3-----------------2-----------------3-----------------------------
E|--------------------------------------------------------------------------1-----------------------3-----

E|--0-----------0-----------0-----------0-----------0-----------0--------------0--12-------------5--13----
B|-----0--0--------0--1--------1--1--------1--3--------3--3--------0--------------------------------------
G|-----------0-----------2-----------2--------4--------------4-------2---14)------------2--14-------------
D|--------------------2--------------------------0--------------------------2-----------------2-----------
A|--------------------0----------------------------------------------3------------------------------------
E|--------------------------------------------3----------------------1---------------1-----------------1--

E|-----------------0--12----------
B|--8--12-------------------------
G|-----------0--------------------
D|--0-----------------------------
A|--------------------------------
E|--3--------------------------3--

E|--------------------0--12----------------------------0--12----------------------0--12-------------------
B|-----0--12----------------------------1--12-------------------------1--13----------------------3--15----
G|--------------0--------------------------------2-----------------------------2-----------------4--------
D|--------------------------------------2-----------------------------------------------------------------
A|--------------------------------------0--------------------------0-----------------------0--------------
E|--------------------------------3--------------------------------------------------------------3--------

E|--------0--12----------------------0--12----------------------------0--12-------------------0--12-------
B|--------------------------3--15-------------------0--12-------------------------------------------------
G|--------------------------------4--------------------------2--14-------------------2--14----------------
D|--0--------------------------------------------------------------------------------0--------------------
A|-----------------------------------------------------------3--------------------------------------------
E|--------------------3-----------------------3--------------1-----1--1-----1--1--1--1-----1--1-----1--1--

E|--------------0--15-------------
B|-----0--12-------------------0--
G|-----------------------------0--
D|-----2--------------------------
A|--------------------------------
E|--1--3-----3--3-----3--3--3--3--

E|--------0--12-------------------0--12-------------------0--12----------------0--12-------------------0--
B|--12-------------------1--15-------------------1--12-------------------3--------------------3--15-------
G|-----------------------2-----------------------4-----------------------5--------------------4-----------
D|--------------------------------------------------------------------------------------------------------
A|-----------------------0-----0--0-----0--0--0--0-----0--0-----0--0--0-----------------------------------
E|-----3--3-----3--3--3--------------------------------------------------3--3--3-----3--3--3--3-----3--3--

E|--12----------------------0--12----------------0--------------------------0--------------------0--------
B|--------0--12----3--15-----------------------------------------------------------------0h1--0-----------
G|-----------------4--------------0--0--0--0--2-----------2--------2-----------------2--------0--------0--
D|--------------------------------0--0--0--0--3--------3-----3-----3--------------3-----------0-----0-----
A|--------------------------------------------3-----3-----------3--3-----3-----3--------------------------
E|-----3--3-----3--3-----3--3-----3--3--3--3--1-----------------------1-----------------------3-----------

E|--------------------0-----------
B|--0--------0-----------------0--
G|-----0-----0--------------0-----
D|--------0--0-----0-----0--------
A|--------------------------------
E|--------------3-----------------

E|-----------0--------------------------0--------------------0--------------------------0-----------------
B|--------1-----------1--------1-----------------1--------3-----------3--------3-----------------0--------
G|--0-----2--------2-----2-----2--------------2-----2-----4--------4-----4-----2--------------5-----0-----
D|-----0--2-----2-----------2--2-----2-----2-----------2--0-----0-----------0--0-----0-----0-----------0--
A|--------0-----------------------0-----------------------------------------------------------------------
E|--------------------------------------------------------3-----------------------3-----------------------

E|-----0--------------------------0--------------------0--------------------------0---------8\7--0-----0--
B|-----------------------------------0---1/8--------0-----------0--------0--------------------------1-----
G|--2-----------2--------2---------------------9\5--0--------0-----0-----0------------7/9-----------2-----
D|--3--------3-----3-----3--------------------------0-----0-----------0--0-----0--------------------2-----
A|--3-----3-----------3--3-----3--------------------------------------------------------------------0-----
E|--1-----------------------1-----------------------3-----------------------3-----------------------------

E|--------------------------0-----
B|--------1--------1-----------10-
G|-----2-----2-----2--------------
D|--2-----------2--2-----2--------
A|--------------------0-----------
E|--------------------------------

E|-----------------0--------------------------------0-----------------------------------------------------
B|------5\3-----3-----------3--------3-----------------3-----0--------------------------------------------
G|--12)------5--4--------4-----4--------4-----------------5------2p0--2--------------------------2--------
D|--------------0-----0-----------0--------0-----0-----------------------------------------------0--------
A|--------------------------------------------------------------------3-----------------------------------
E|--------------0-----------------------------3-----------------------1--1--1--1--1--1--1--1--1--1--1--1--

E|--0--------------------------0--------------------------0-----------------------------------------------
B|--------------------0--------------------------0--------------------------3-----------5-----5-----5-----
G|-----------------------------------------------0--------------------------4--------------5-----5-----5--
D|--------------------2-----------------------------------------------------------------7-----------------
A|--------------------------------------------------------------------------------------------------------
E|--1--1--1--1--1--1--3--3--3--3--3--3--3--3--3--3--3--3--3--3--3--3--3--3--3-----------------------------

E|--------------------------------
B|--5-----5-----5-----5-----5-----
G|-----7-----7-----7-----7-----7--
D|--9-----------------------------
A|--------------------------------
E|--------------------------------

E|--------------------------------5v-
B|--5-----5--------5-----5-----5--5v-
G|-----7--------5-----7-----7-----5v-
D|-----------7-----9--------------7v-
A|-----------------------------------
E|-----------------------------------




Song lyrics here 
E|--
B|--
G|--
D|--
A|--
E|--

Use manual mode to free up cursor. Paste any tab in acousterr tab maker and we'll play it !!!

tabs and chords, guitar tabs, music transcription, music technology, deep learning, music information retrieval, transcribe into tabs & chords, chordify, music renditions, songsterr, reverbnation, tabulature, bollywood chords, ultimate guitar, yousician, guitar lessons, acoustic guitar, electric guitar, guitar tuner, 911 tabs