Instagram - Dean - Guitar Tabs

(/) Slide Up  (\) Slide Down  (h) Hammer On  (p) Pull Off  (b) Bend (r) Release (v) Vibrato (x) Muted-----

Verse 1
(BPM: 100)
E|--------x-----------x-----------x--------------------------x-----------x-----------x-----------------
B|-----9--x--9-----8--x--8-----8--x--8--------------------9--x--9-----8--x--8-----6--x--6--------------
G|--------x-----------x-----------x--------------------------x-----------x-----------x-----------------
D|--------x-----------x-----------x--------------------------x-----------x-----------x-----------------
A|--8-----x--8--------x-----6-----x--6-----------------8-----x--8--------x-----6-----x--6--------------
E|--------x-----6-----x--6--------x--------------------------x-----6-----x--6--------x-----------------

Verse 2a 
(BPM: 100)
E|--------x--------6--x--6-----3--x--3-----------------------x--------6--x--6-----3--x--4--------------
B|-----6--x--6--------x-----------x-----------------------6--x--6--------x-----------x-----------------
G|--------x-----------x-----------x--------------------------x-----------x-----------x-----------------
D|--------x-----5-----x--5--------x--------------------------x-----5-----x--5--------x-----------------
A|--5-----x--5--------x-----3-----x--3-----------------5-----x--5--------x-----3-----x--3--------------
E|--------x-----------x-----------x--------------------------x-----------x-----------x-----------------

Verse 1
(BPM: 100)
E|--------x-----------x-----------x--------------------------x-----------x-----------x-----------------
B|-----9--x--9-----8--x--8-----8--x--8--------------------9--x--9-----8--x--8-----6--x--6--------------
G|--------x-----------x-----------x--------------------------x-----------x-----------x-----------------
D|--------x-----------x-----------x--------------------------x-----------x-----------x-----------------
A|--8-----x--8--------x-----6-----x--6-----------------8-----x--8--------x-----6-----x--6--------------
E|--------x-----6-----x--6--------x--------------------------x-----6-----x--6--------x-----------------

Verse 2b
(BPM: 100)
E|--------x--------6--x--6-----3--x--3--------------------x-----------x-----------x--------------------
B|-----6--x--6--------x-----------x--------------------6--x--6-----4--x--4-----3--x--4-----------------
G|--------x-----------x-----------x-----------------------x-----------x-----------x--------------------
D|--------x-----5-----x--5--------x-----------------------x-----------x-----------x--------------------
A|--5-----x--5--------x-----3-----x--3--------------5-----x--5--------x-----3-----x--3-----------------
E|--------x-----------x-----------x-----------------------x-----3-----x--3--------x--------------------

Use manual mode to free up cursor. Paste any tab in acousterr tab maker and we'll play it !!!
tabs and chords, guitar tabs, music transcription, music technology, deep learning, music information retrieval, transcribe into tabs & chords, chordify, music renditions, songsterr, reverbnation, tabulature, bollywood chords, ultimate guitar, yousician, guitar lessons, acoustic guitar, electric guitar, guitar tuner, 911 tabs