Guitar Tabs for Dean Lewis Waves

Intro and Bridge                                                                                                                                                                                                                                                                                                                                                                                                                                                           
E|--------------------------------------------------------------------------------------------------------------------------
B|--------------------------------------------------------------------------------------------------------------------------
G|-----4--4--4--4-----4--4--4--4-----7--7--7--7-----7--7--7--7-----11-11-11-11----11-11-11-11----6--6--6--6-----6--6--6--6--
D|--------------------------------------------------------------------------------------------------------------------------
A|--------------------------------------------------------------------------------------------------------------------------
E|--3--------------3--------------7--------------7--------------10-------------10-------------5--------------5--------------
                                                                                                                            x2
E|--------------------------------------------------------------
B|--------------------------------------------------------------
G|-----4--4--4--4-----6--6--6--6-----7--7--7--7-----11-11-11-11-
D|--------------------------------------------------------------
A|--------------------------------------------------------------
E|--3--------------5--------------7--------------10-------------

E|-----------------------------------------------------------------------------------------------
B|-----------------------------------------------------------------------------------------------
G|-----4--4--4--4-----6--6--6--6-----7--7--7--7-----12-12----11-11----6--6--6--6-----6--6--6--6--
D|-----------------------------------------------------------------------------------------------
A|-----------------------------------------------------------------------------------------------
E|--3--------------5--------------7--------------12-------10-------5--------------5--------------

Verse----
E|--------------------------------------------------------------
B|--------------------------------------------------------------
G|-----7--7--7--7-----4--4--4--4-----11-11-11-11----6--6--6--6--
D|--------------------------------------------------------------
A|--------------------------------------------------------------
E|--7--------------3--------------10-------------5---------------
                                                           x3  
verse
E|--------------------------------------------------------------
B|--------------------------------------------------------------
G|-----7--7--7--7-----4--4--4--4-----11-11-11-11----------------
D|--------------------------------------------------------------
A|--------------------------------------------------------------
E|--7--------------3--------------10----------------------------

chrous
E|--------------------------------------------------------------
B|--------------------------------------------------------------
G|-----4--4--4--4-----6--6--6--6-----7--7--7--7-----11-11-11-11-
D|--------------------------------------------------------------
A|--------------------------------------------------------------
E|--3--------------5--------------7--------------10-------------
                                                                 x2
E|-----------------------------------------------
B|-----------------------------------------------
G|-----12-12-12-12----11-11-11-11----6--6--6--6--
D|-----------------------------------------------
A|-----------------------------------------------
E|--12-------------10-------------5--------------

                                                 x2
tabs and chords, guitar tabs, music transcription, music technology, deep learning, music information retrieval, transcribe into tabs & chords, chordify, music renditions, songsterr, reverbnation, tabulature, bollywood chords, ultimate guitar, yousician, guitar lessons, acoustic guitar, electric guitar, guitar tuner, 911 tabs