Guitar Tabs for I'm Just Your Problem- Adventure Time

(/) Slide Up  (\) Slide Down  (h) Hammer On  (p) Pull Off  (b) Bend (r) Release (v) Vibrato (x) Muted

Tabs for Song : 
BPM : 300

Song lyrics here 
E|-----------------------------------------0-----------------------------------------------3--2-----------------------------------------------------------------------3--2--2--2--0-----------------------------------------------3--2--2--2--0--------------------------------------------------------------------------------------------------3--3--2--0--0-----------------3--0--3--2--------3--0--------------
B|--0--3--0-----0--------------------3--0-----3--0-----0--------------------3--0--------------------------------------------------------0-----------0-----------0--------------------3--3--1--0-----0-----------0-----------0--------------------3--3--1--0--3--0--0--0--0--5--4--0--------------------3--0--------0--------0-----------------------------------3--3--3--1--0-----------------0--------0-----------
G|-----------2-----0--0--0--2--0--0-----------------0-----0--0--0--2--0--0--------0--0--0--------4--0--0--0--2--0--0--0--4--0--0--0--2-----2--0--2-----2--0--2-----0-----------------------------2-----2--0--2-----2--0--2-----0-----------------------------------------------------0--2--0--2--0--0--------0--2-----0--2-----0--2--4--0--0--0--------------------------------------------2--------------2--0--0--
D|-----------------------------------------------------------------------------------------------------------------------------------------------------------------------------------------------------------------------------------------------------------------------------------------------------------------------------------------------------------------------------------------------------------------
A|-----------------------------------------------------------------------------------------------------------------------------------------------------------------------------------------------------------------------------------------------------------------------------------------------------------------------------------------------------------------------------------------------------------------
E|-----------------------------------------------------------------------------------------------------------------------------------------------------------------------------------------------------------------------------------------------------------------------------------------------------------------------------------------------------------------------------------------------------------------

E|--------------3--0--3--2--------------3--0-----------------------------------------------------------------------------------------------------------------------------------------3--2--2--2--0-----------------------------------------------------------------------------------------------------------------3--0--3--2--------3--0--------------
B|--------------------------0--0-----0--------0--------------0--3--0-----0--3--0--------0-----------------------3--0--0--3--0-----0--3--0--------0--------------------------3--0--------------------3--------------------------3--3--1--0-----0--3--0-----0--3--0--------0--------------------------------3--0--------------------0--------0-----------
G|--0--0--0--0--------------------2--------------2--0--0--0-----------2-----------2--2-----0--0--2--0--2--0--0-----------------2-----------2--2-----0--0--2--0--2--0--0--0--------0--------------------0--0--2--0--2--0--0--0--------------0-----------2-----------2--2-----0--0--2--0--0--0--2--0--0--0--------0--------------2--------------2--0--0--
D|-----------------------------------------------------------------------------------------------------------------------------------------------------------------------------------------------------------------------------------------------------------------------------------------------------------------------------------------------------
A|-----------------------------------------------------------------------------------------------------------------------------------------------------------------------------------------------------------------------------------------------------------------------------------------------------------------------------------------------------
E|-----------------------------------------------------------------------------------------------------------------------------------------------------------------------------------------------------------------------------------------------------------------------------------------------------------------------------------------------------

E|-----------------------------------------
B|-----0--3--0--0-----0--------------------
G|--0--------------2-----0--2--2--2--0--0--
D|-----------------------------------------
A|-----------------------------------------
E|-----------------------------------------

E|--
B|--
G|--
D|--
A|--
E|--

Song lyrics here 
E|--
B|--
G|--
D|--
A|--
E|--

Use manual mode to free up cursor. Paste any tab in acousterr tab maker and we'll play it !!!
tabs and chords, guitar tabs, music transcription, music technology, deep learning, music information retrieval, transcribe into tabs & chords, chordify, music renditions, songsterr, reverbnation, tabulature, bollywood chords, ultimate guitar, yousician, guitar lessons, acoustic guitar, electric guitar, guitar tuner, 911 tabs