Guitar Tabs for I'm Just Afraid

(/) Slide Up  (\) Slide Down  (h) Hammer On  (p) Pull Off  (b) Bend (r) Release (v) Vibrato (x) Muted

Tabs for Song : 
BPM : 162

Verse Pt.1 (Palm mute) 
E|--------------------------------------------------------------------------------------------------------------------------------------------------------------
B|--------------------------------------------------------------------------------------------------------------------------------------------------------------
G|--------------------------------------------------------------------------------------------------------------------------------------------------------------
D|--------------------------------------------------------------------------------------------------------------------------------------------------------------
A|--------------------------------------------------------------------------------------------------------------------------------------------------------------
E|--10-10-10-10-10-10-10-10-10-10-10-10-10-10-10-10-5--5--5--5--5--5--5--5--5--5--5--5--5--5--5--5--2--2--2--2--2--2--2--2--3--3--3--3--5--5--5--5--5--5--5--5--
Verse Pt.2
E|--------------------------------------------------------------------------------------------------------------------------------------------------------------
B|--------------------------------------------------------------------------------------------------------------------------------------------------------------
G|--------------------------------------------------------------------------------------------------------------------------------------------------------------
D|--------------------------------------------------------------------------------------------------------------------------------------------------------------
A|--12-12-12-12-12-12-12-12-12-12-12-12-12-12-12-12-7--7--7--7--7--7--7--7--7--7--7--7--7--7--7--7--4--4--4--4--4--4--4--4--5--5--5--5--7--7--7--7--7--7--7--7--
E|--10-10-10-10-10-10-10-10-10-10-10-10-10-10-10-10-5--5--5--5--5--5--5--5--5--5--5--5--5--5--5--5--2--2--2--2--2--2--2--2--3--3--3--3--5--5--5--5--5--5--5--5--
Chorus Pt. 1
E|--------------------------------------
B|--------------------------------------
G|--------------------------------------
D|--------------7--7--7--7--7--7--------
A|--9--9--7--7--5--5--5--5--5--5--5--5--
E|--7--7--5--5--------------------3--3--
Chorus Pt. 2
E|--------------------------------
B|--------------------------------
G|--------------------------------
D|--------------------------------
A|--9--9--7--7--5--5--5--5--5--5--
E|--7--7--5--5--3--3--3--3--3--3--
Lead pt. 1
E|-----------------------------------------------------
B|-----------------------------------------------------
G|-----------------------------------------------------
D|-----------------------------------------------------
A|--5---5h-7p5--0---0h-2p0-----------------------------
E|--------------------------2--3--5-----3--5--3--5--3--
Lead chorus pt. 1
E|--------------------------------------
B|--------------------------------------
G|--------------------------------------
D|--4--5--4--2--4---2/12-12-12\5--5--5--
A|--------------------------------------
E|--------------------------------------
Lead chorus pt. 2
E|--------------------------------------------------------------------------------------------------------------------------------------------
B|--------------------------------------------------------------------------------------------------------------------------------------------
G|--------------------------------------------------------------------------------------------------------------------------------------------
D|--4--5--4--2--4---2/12-12-12\5--5--5--4--5--4--2--4--2--0--0--5--4--0--5--4--0--0--0--2--4--2--0--0--5--4--0--5--4--0--0--0--2--4---4p-2p0--
A|--------------------------------------------------------------------------------------------------------------------------------------------
E|--------------------------------------------------------------------------------------------------------------------------------------------
tabs and chords, guitar tabs, music transcription, music technology, deep learning, music information retrieval, transcribe into tabs & chords, chordify, music renditions, songsterr, reverbnation, tabulature, bollywood chords, ultimate guitar, yousician, guitar lessons, acoustic guitar, electric guitar, guitar tuner, 911 tabs