Guitar Tabs for I'll See You In My Dreams (tenor Guitar) Eddy Davis Arrangement

(/) Slide Up  (\) Slide Down  (h) Hammer On  (p) Pull Off  (b) Bend (r) Release (v) Vibrato (x) Muted

Tabs for Song : 
BPM : 200

Song lyrics here 
E|-----------------------------------------------------------------------------------------------------------
B|-----------------------------------------------------------------------------------------------------------
A|-----------------------------0-----------------------------0--0--3--3--5--5--5--7--5--5--5--5--5--5--5--5--
D|--3--2--1--0--0--3--3--5--5-----5--5--5--5--5--5--5--5-----3--3--3--3--6--6--6--6--3--3--3--3--3--3--3--3--
G|-----------3--3--3--3--3--3-----6--6--6--6--6--6--6--6--0--2--2--2--2--5--5--5--5--2--2--2--2--2--2--2--2--
C|-----------2--2--2--2--2--2-----5--5--5--5--5--5--5--5-----0--0--0--0--0--0--0--0--0--0--0--0--0--0--0--0--

Song lyrics here 
E|--------------------------------------------------------------------------------------------------
B|--------------------------------------------------------------------------------------------------
A|--5--5--------------------3--0--3--0--0--0--0--0--2--2--0--0--------------0--0--0--3--3--3--3--3--
D|--4--4--0--0--2--2--4--4--4--4--4--4--4--4--4--4--3--3--0--0--2--2--3--3--0--5--0--5--5--5--5--5--
G|--2--2--2--2--2--2--2--2--2--2--2--2--2--2--2--2--4--4--4--4--4--4--4--4--3--3--3--3--3--3--3--3--
C|--2--2--2--2--2--2--2--2--2--2--2--2--2--2--2--2--2--2--2--2--2--2--2--2--2--2--4--4--4--4--4--

Use manual mode to free up cursor. Paste any tab in acousterr tab maker and we'll play it !!!
E|--------------------------------------------------------------------------------------------------
B|--------------------------------------------------------------------------------------------------
A|--------------------0-----------------------------0--0--3--3--5--5--5--7--5--5--5--5--5--5--5--5--
D|--0--0--3--3--5--5-----5--5--5--5--5--5--5--5-----3--3--3--3--6--6--6--6--3--3--3--3--3--3--3--3--
G|--3--3--3--3--3--3-----6--6--6--6--6--6--6--6--0--2--2--2--2--5--5--5--5--2--2--2--2--2--2--2--2--
C|--2--2--2--2--2--2-----5--5--5--5--5--5--5--5-----0--0--0--0--0--0--0--0--0--0--0--0--0--0--0--0--

E|--------------------------------------------------------------------------------
B|--------------------------------------------------------------------------------
A|--6--6--5--5--3--3--5--3-----------------------0-----------3--0--0--0--0--0--0--
D|--4--4--4--4--4--4--4--4--7--7--5--5--3--3--2--0---2h3---5/2--2--3--3--3--3--3--
G|--2--2--2--2--2--2--2--2--6--6--6--6--3--3--2--3---3h3-----3--3--2--2--2--2--2--
C|--2--2--2--2--2--2--2--2--4--4--4--4--2--2--2--2---2h2-----0--0--0--0--0--0--0--

tabs and chords, guitar tabs, music transcription, music technology, deep learning, music information retrieval, transcribe into tabs & chords, chordify, music renditions, songsterr, reverbnation, tabulature, bollywood chords, ultimate guitar, yousician, guitar lessons, acoustic guitar, electric guitar, guitar tuner, 911 tabs