Guitar Tabs for Ijazat - Sunny Leone Tabs

Tabs for Song:izazat

kese bataye kese jaataye
E|--------------------------------------
B|--------------------------------------
G|--1--1-----1--------1--1-----1--------
D|--------4-----4-----------4-----4-----
A|--------------------------------------
E|--------------------------------------

subaha tak tujhme jeena chahe
E|-----------------------------------------
B|-----------------------0-----------------
G|--1--1-----1--1--1--2-----2--1--2--2-----
D|--------4--------------------------------
A|-----------------------------------------
E|-----------------------------------------

bheege labon ki geeli hasi ko
E|--------------------------------------------
B|--------------------------------------------
G|--1--1-----1-----------1--1-----1-----------
D|--------4--------4-----------4--------4-----
A|--------------------------------------------
E|--------------------------------------------

peene ka mausam hai peena chahe
E|-----------------------------------------
B|-----------------------0-----------------
G|--1--1-----1--1--1--2-----2--1--2--2-----
D|--------4--------------------------------
A|-----------------------------------------
E|-----------------------------------------

ek baat kahoon kya izzazat hai
E|--------------------------------------------
B|--------------------------------------------
G|-----2--2--1--1-----------------------------
D|-----------------4--4--2--0--0--2-----------
A|--4--------------------------------5--4-----
E|--------------------------------------------

tere ishq ki mujhko aadat hai
E|--------------------------------------------
B|--------------------------------0-----------
G|-----------------------1--1--1-----1--2-----
D|-----------4--4--4--4-----------------------
A|--4--4--4-----------------------------------
E|--------------------------------------------





tabs and chords, guitar tabs, music contests, music covers, songsterr, reverbnation, renditions, tabulature, bollywood chords, ultimate guitar, yousician, guitar lessons, torrins, fender, gibson, acoustic guitar, electric guitar, youtube covers, gootar, guitar tuner, A-Z tabs, 911 tabs