Guitar Tabs for Sunny Days Summer Nights

(/) Slide Up  (\) Slide Down  (h) Hammer On  (p) Pull Off  (b) Bend (r) Release (v) Vibrato (x) Muted

Tabs for Song : 
BPM : 240

Intro:
E|-----------7--5-----------------------5--------------------
B|--------5--------5--------------4-----4--------------------
G|-----5--------------5--------5-----5--5--------------------
D|--5--------------------5--4-----------4--------------------
A|-----------------------------------------------------------
E|-----------------------------------------------------------

First Verse:

?? ?? ??? ?
?? ?? ?? ? ??? ?
??? ? ? ???
??? ? ?? ??? ? ?? ?

E|--------------------------------------------------------------------------
B|-----------0-----3-----------------3-----7-----8------------8/10-8--------
G|--------2-----------------------2--------------7--------7-----------7-----
D|-----0-----------------------4-----------7-----9-----9-----------------9--
A|--------------------------2--------------6-----7--------------------------
E|--3-----------------------------------------------------------------------

E|-----------2--0--------------------------3-----------------3--------------
B|--------3--------3-----------------5--------------------3--------3--------
G|-----2--------------2-----------4-----------------------------------------
D|--0--------------------0-----5-----------------------0--------------------
A|--------------------------3-----------------------2-----------------------
E|--------------------------------------------------------------------------

E|--------------------------------------10----------
B|---0/1-----3-----1-----------------8--------------
G|--------------------------------9-----------------
D|--------2--------------------10-------------------
A|---0/---------------------------------------------
E|--------------------------10----------------------

E|--------------------------------------------------------------------------
B|-----------0-----3-----------------3-----7-----8------------8/10-8--------
G|--------2-----------------------2--------------7--------7-----------7-----
D|-----0-----------------------4-----------7-----9-----9-----------------9--
A|--------------------------2--------------6-----7--------------------------
E|--3-----------------------------------------------------------------------

E|-----------2--0--------------------------3--------------3-----3-----------
B|--------3--------3-----------------5--------------3-----------3-----------
G|-----2--------------2-----------4-----------------0-----------0-----------
D|--0--------------------0-----5--------------------------------------------
A|--------------------------3-----------------------2-----------1-----------
E|--------------------------------------------------------------------------

E|--------------------3------------------3h5--------
B|---0/1-----3--------3-----------------------------
G|--------------------2--------------2--------------
D|--------2-----------0-----------------------------
A|---0/---------------------------------------------
E|--------------------------------------------------


Pre-Chorus:

??? ?? ??
??? ?? ??
??? ? ???
? ??? ??? ?
?? ?? ??

E|--7-----------------------5-----------------------
B|--5-----------------------4-----------------------
G|--5-----------------------5-----------------------
D|--0-----------------------0-----------------------
A|--------------------------------------------------
E|--------------------------------------------------

E|-----------------------------------2-----3--------
B|-----------0-----3--------------3-----------------
G|--------2--------------------0--------------------
D|-----0--------------------------------------------
A|--------------------------------------------------
E|--3-----------------------3-----------------------

E|-----------3--------------5-----------7-----------
B|--------6--------6--------6-----------6-----------
G|-----5--------------------5-----------5-----------
D|--0-----------------------5-----------5-----------
A|--------------------------------------------------
E|--------------------------------------------------

E|-----------7--------7-----------7-----7--7--7--7--
B|--8--------8--------8-----------8-----8--8--8--8--
G|--9--------9--------9-----------9-----9--9--9--9--
D|--------------------------------------------------
A|--------------------------------------------------
E|--8-----------------8-----------8-----8--8--8--8--

E|-----------3--------------------10----8-----------
B|-----------------4--------------8-----8-----------
G|--------3-----------------------8-----8-----------
D|-----5-----------------------8--8-----8-----------
A|--3-----------------------8-----8-----8-----------
E|--------------------------------------------------

E|-----------2---------------2/3--------------------
B|-----------------3---------3/---------3-----------
G|--------2------------------0/---------2-----------
D|-----4--------------------------------0-----------
A|--2------------------------2/---------2-----------
E|--------------------------------------------------

E|--------------------------3-----3------3/5--------
B|---0/1-----3-----1--------3--------3---3/---------
G|--------------------------2------------2/---------
D|--------2-----------------0------------0/---------
A|---0/---------------------------------------------
E|--------------------------------------------------

E|--------------------------5-----------x-----------
B|-----------0-----3--------5-----------x-----------
G|--------2-----------------5-----------x-----------
D|-----0--------------------------------x-----------
A|--------------------------5-----------x-----------
E|--3-----------------------------------x-----------


Chorus:

Sunny days
? ?? ???
???? ?
??? ?? ??? ?

E|--------------------------------------------------------------------------
B|-----------0-----3-----------------3-----7-----8------------8/10-8--------
G|--------2-----------------------2--------------7--------7-----------7-----
D|-----0-----------------------4-----------7-----9-----9-----------------9--
A|--------------------------2--------------6-----7--------------------------
E|--3-----------------------------------------------------------------------

E|-----------------------------------------3-----------------3--------------
B|--6-----------3--------------------5--------------------3--------3--------
G|--------------4-----------------4--------------------0--------------------
D|--7-----------3--------------5--------------------------------------------
A|--5-----------------------3-----------------------2-----------------------
E|--------------3-----------------------------------------------------------

E|-----------3--------------3--5--7--5-----3--------
B|---0/1-----------1--------------------------------
G|--------------------------4--7--9--7-----4--------
D|--------2-----------------------------------------
A|---0/---------------------------------------------
E|--------------------------------------------------

Rainy days
??? ??? ?
?? ? ? ??
?? ?? ??
??? ?? ????
?? ?? ????

E|--------------------------------------------------------------------------
B|-----------0-----3-----------------3-----7-----8------------8/10-8--------
G|--------2-----------------------2--------------7--------7-----------7-----
D|-----0-----------------------4-----------7-----9-----9-----------------9--
A|--------------------------2--------------6-----7--------------------------
E|--3-----------------------------------------------------------------------

E|-----------------------------------------3-----------------3--------------
B|--6-----------3--------------------5--------------------3--------3--------
G|--------------4-----------------4--------------------0--------------------
D|--7-----------3--------------5--------------------------------------------
A|--5-----------------------3-----------------------2-----------------------
E|--------------3-----------------------------------------------------------

E|--------------------------3-----------------------
B|---0/1-----3-----1--------3-----------------------
G|--------------------------2-----------------------
D|--------2-----------------0-----------------------
A|---0/---------------------------------------------
E|--------------------------------------------------

E|-----------7--5-----------------------5-----------
B|--------5--------5--------------4-----4-----------
G|-----5--------------5--------5-----5--5-----------
D|--5--------------------5--4-----------4-----------
A|--------------------------------------------------
E|--------------------------------------------------

Right there next to you

E|--------------------------------------------------------------------------
B|-----------0-----3-----------------3-----7-----8------------8/10-8--------
G|--------2-----------------------2--------------7--------7-----------7-----
D|-----0-----------------------4-----------7-----9-----9-----------------9--
A|--------------------------2--------------6-----7--------------------------
E|--3-----------------------------------------------------------------------

E|-----------------------------------------3-----------------3--------------
B|--6-----------3--------------------5--------------------3--------3--------
G|--------------4-----------------4--------------------0--------------------
D|--7-----------3--------------5--------------------------------------------
A|--5-----------------------3-----------------------2-----------------------
E|--------------3-----------------------------------------------------------

E|-----------3--------------3--5--7--5-----3--------
B|---0/1-----------1--------------------------------
G|--------------------------4--7--9--7-----4--------
D|--------2-----------------------------------------
A|---0/---------------------------------------------
E|--------------------------------------------------

Right there next to you
??? ?? ??? ?

E|--------------------------------------------------------------------------
B|-----------0-----3-----------------3-----7-----8------------8/10-8--------
G|--------2-----------------------2--------------7--------7-----------7-----
D|-----0-----------------------4-----------7-----9-----9-----------------9--
A|--------------------------2--------------6-----7--------------------------
E|--3-----------------------------------------------------------------------

E|-----------------------------------------3-----------------3--------------
B|--6-----------3--------------------5--------------------3--------3--------
G|--------------4-----------------4--------------------0--------------------
D|--7-----------3--------------5--------------------------------------------
A|--5-----------------------3-----------------------2-----------------------
E|--------------3-----------------------------------------------------------

E|--------------------------3-----3------3h5--------
B|---0/1-----3-----1--------3-----------------------
G|--------------------------2--------2--------------
D|--------2-----------------0-----------------------
A|---0/---------------------------------------------
E|--------------------------------------------------

??? ?? ??
?? ??? ? ?
??? ? ???
?? ?? ????
??? ?? ??

E|--7-----------------------5-----------------------
B|--5-----------------------4-----------------------
G|--5-----------------------5-----------------------
D|--0-----------------------0-----------------------
A|--------------------------------------------------
E|--------------------------------------------------

E|-----------------------------------2-----3--------
B|-----------0-----3--------------3-----------------
G|--------2--------------------0--------------------
D|-----0--------------------------------------------
A|--------------------------------------------------
E|--3-----------------------3-----------------------

E|-----------3--------------5-----------7-----------
B|--------6--------6--------6-----------6-----------
G|-----5--------------------5-----------5-----------
D|--0-----------------------5-----------5-----------
A|--------------------------------------------------
E|--------------------------------------------------

E|-----------7--------7-----------7-----7--7--7--7--
B|--8--------8--------8-----------8-----8--8--8--8--
G|--9--------9--------9-----------9-----9--9--9--9--
D|--------------------------------------------------
A|--------------------------------------------------
E|--8-----------------8-----------8-----8--8--8--8--

E|-----------3--------------------10----8-----------
B|-----------------4--------------8-----8-----------
G|--------3-----------------------8-----8-----------
D|-----5-----------------------8--8-----8-----------
A|--3-----------------------8-----8-----8-----------
E|--------------------------------------------------

E|-----------2---------------2/3--------------------
B|-----------------3---------3/---------3-----------
G|--------2------------------0/---------2-----------
D|-----4--------------------------------0-----------
A|--2------------------------2/---------2-----------
E|--------------------------------------------------

E|--------------------------3-----3------3/5--------
B|---0/1-----3-----1--------3--------3---3/---------
G|--------------------------2------------2/---------
D|--------2-----------------0------------0/---------
A|---0/---------------------------------------------
E|--------------------------------------------------

E|--------------------------5-----------x-----------
B|-----------0-----3--------5-----------x-----------
G|--------2-----------------5-----------x-----------
D|-----0--------------------------------x-----------
A|--------------------------5-----------x-----------
E|--3-----------------------------------x-----------

Sunny days
? ?? ???
???? ?
??? ?? ??? ?

E|--------------------------------------------------------------------------
B|-----------0-----3-----------------3-----7-----8------------8/10-8--------
G|--------2-----------------------2--------------7--------7-----------7-----
D|-----0-----------------------4-----------7-----9-----9-----------------9--
A|--------------------------2--------------6-----7--------------------------
E|--3-----------------------------------------------------------------------

E|-----------------------------------------3-----------------3--------------
B|--6-----------3-----------5--------5--------------------3--------3--------
G|--------------4-----------------4--------------------0--------------------
D|--7-----------3--------------5--------------------------------------------
A|--5-----------------------3-----------------------2-----------------------
E|--------------3-----------------------------------------------------------

E|--------------------------3--5--7--5-----3--------
B|---0/1-----3-----1--------------------------------
G|--------------------------4--7--9--7-----4--------
D|--------2-----------------------------------------
A|---0/---------------------------------------------
E|--------------------------------------------------

Rainy days
??? ??? ?
?? ? ? ??
?? ?? ??
??? ?? ????
?? ?? ????

E|--------------------------------------------------------------------------
B|-----------0-----3-----------------3-----7-----8------------8/10-8--------
G|--------2-----------------------2--------------7--------7-----------7-----
D|-----0-----------------------4-----------7-----9-----9-----------------9--
A|--------------------------2--------------6-----7--------------------------
E|--3-----------------------------------------------------------------------

E|-----------------------------------------3-----------------3--------------
B|--6-----------3--------------------5--------------------3--------3--------
G|--------------4-----------------4--------------------0--------------------
D|--7-----------3--------------5--------------------------------------------
A|--5-----------------------3-----------------------2-----------------------
E|--------------3-----------------------------------------------------------

E|-----------------------------------3--------------
B|---0/1-----3-----1--------------3-----3-----------
G|-----------------------------2--------------------
D|--------2-----------------0-----------------------
A|---0/---------------------------------------------
E|--------------------------------------------------

E|-----------2-----------------------3--------------
B|-----------------3-----------------------3--------
G|--------2-----------------------0-----------------
D|-----4-----------------------0--------------------
A|--2-----------------------------------------------
E|--------------------------0-----------------------

?? ?? ?? ?
? ? ?? ?? ?

E|-----------------------------------3--2-----------
B|---0/1-----3-----1--------------3-----3-----------
G|-----------------------------2--------2-----------
D|--------2-----------------0-----------0-----------
A|---0/---------------------------------------------
E|--------------------------------------------------

E|-----------2-----------------------3--------------
B|-----------------3-----------------------3--------
G|--------2-----------------------0-----------------
D|-----4-----------------------0--------------------
A|--2-----------------------------------------------
E|--------------------------0-----------------------

E|-----------------------------------3--2-----------
B|---0/1-----3-----1--------------3-----3-----------
G|-----------------------------2--------2-----------
D|--------2-----------------0-----------0-----------
A|---0/---------------------------------------------
E|--------------------------------------------------

E|------------------------------------2/3-----------
B|-----------3--------------------------------3-----
G|--------2--------2--------------0-----------------
D|-----4-----------------------0--------------------
A|--2-----------------------2-----------------------
E|--------------------------------------------------

E|-----------------------------------3--2-----------
B|---0/1-----3-----1--------------3-----3-----------
G|-----------------------------2--------2-----------
D|--------2-----------------0-----------0-----------
A|---0/---------------------------------------------
E|--------------------------------------------------

E|-----------2-----------------------3--------------
B|-----------------3-----------------------3--------
G|--------2-----------------------0-----------------
D|-----4-----------------------0--------------------
A|--2-----------------------------------------------
E|--------------------------0-----------------------

E|-----------3-----------------------3--------------
B|---0/1-----------1-----------------------1--------
G|--------------------------------------------------
D|--------2-----------------------2-----------------
A|---0/---------------------------------------------
E|--------------------------------------------------

E|-----------3--------------------------------------
B|---0/1-----------1-----3-----1--------------------
G|--------------------------------------------------
D|--------2-----------------------------------------
A|---0/---------------------------------------------
E|--------------------------------------------------

E|-----------3--------------0-----------------------
B|---0/1-----------1--------1-----------------------
G|--------------------------0-----------------------
D|--------2-----------------2-----------------------
A|---0/---------------------------------------------
E|--------------------------------------------------

?? ?? ??? ?
??? ??? ? ???

E|--------------------------------------------------------------------------
B|-----------0-----3-----------------3-----7-----8------------8/10-8--------
G|--------2-----------------------2--------------7--------7-----------7-----
D|-----0-----------------------4-----------7-----9-----9-----------------9--
A|--------------------------2--------------6-----7--------------------------
E|--3-----------------------------------------------------------------------

E|-----------2--0--------------------------3--------------3-----3-----------
B|--------3--------3-----------------5--------------3-----------3-----------
G|-----2--------------2-----------4-----------------0-----------0-----------
D|--0--------------------0-----5--------------------------------------------
A|--------------------------3-----------------------2-----------1-----------
E|--------------------------------------------------------------------------

E|--3-----------------------------------------------
B|--1-----------------------------------------------
G|--0-----------------------------------------------
D|--2-----------------------------------------------
A|--0-----------------------------------------------
E|--------------------------------------------------




tabs and chords, guitar tabs, music transcription, music technology, deep learning, music information retrieval, transcribe into tabs & chords, chordify, music renditions, songsterr, reverbnation, tabulature, bollywood chords, ultimate guitar, yousician, guitar lessons, acoustic guitar, electric guitar, guitar tuner, 911 tabs