Guitar Tabs for If You Really Love Nothing - Interpol

(/) Slide Up  (\) Slide Down  (h) Hammer On  (p) Pull Off  (b) Bend (r) Release (v) Vibrato (x) Muted

Tabs for Song : 
BPM : 200

Intro: (0:00 - 0:29) If you really love nothing, on what future do we build illusions...
E|--------x-----------x-----------x-----------x-----------x-----------x-----------x-----------x--
B|--5-----x-----5-----x-----5-----x-----5-----x-----4-----x-----4-----x-----4-----x-----4-----x--
G|-----4--x--------4--x--------4--x--------4--x--------4--x--------4--x--------4--x--------4--x--
D|--------x--6--------x--6--------x--6--------x--6--------x--6--------x--6--------x--6--------x--
A|--------x-----------x-----------x-----------x-----------x-----------x-----------x-----------x--
E|--------x-----------x-----------x-----------x-----------x-----------x-----------x-----------x--


E|-----------x-----------x-----------x-----------x-----------x-----------x-----------x-----------x--
B|-----4-----x-----4-----x-----4-----x-----4-----x-----4-----x-----4-----x-----4-----x-----4-----x--
G|--------6--x--------6--x--------6--x--------6--x--------4--x--------4--x--------4--x--------4--x--    2X
D|--6--------x--6--------x--6--------x--6--------x--6--------x--6--------x--6--------x--6--------x--
A|-----------x-----------x-----------x-----------x-----------x-----------x-----------x-----------x--
E|-----------x-----------x-----------x-----------x-----------x-----------x-----------x-----------x--


Verse: (0:29 - 0:54) If you really love nothing, do we wait in silent glory....
E|-----------x-----------x-----------x-----------x-----------x-----------x-----------x-----------x--
B|-----5-----x-----5-----x-----5-----x-----5-----x-----5-----x-----5-----x-----5-----x-----5-----x--
G|--------4--x--------4--x--------4--x--------4--x--------6--x--------6--x--------6--x--------6--x--
D|--6--------x--6--------x--6--------x--6--------x--6--------x--6--------x--6--------x--6--------x--
A|-----------x-----------x-----------x-----------x-----------x-----------x-----------x-----------x--
E|-----------x-----------x-----------x-----------x-----------x-----------x-----------x-----------x--

E|-----------x-----------x-----------x-----------x-----------x-----------x-----------x-----------x--
B|-----4-----x-----4-----x-----4-----x-----4-----x-----5-----x-----5-----x-----5-----x-----5-----x--
G|--------4--x--------4--x--------4--x--------4--x--------4--x--------4--x--------4--x--------4--x--
D|--6--------x--6--------x--6--------x--6--------x--6--------x--6--------x--6--------x--6--------x--
A|-----------x-----------x-----------x-----------x-----------x-----------x-----------x-----------x--
E|-----------x-----------x-----------x-----------x-----------x-----------x-----------x-----------x--

E|-----------x-----------x-----------x-----------x-----------x-----------x-----------x-----------x-----------x-----------x-----------x-----------x--
B|-----5-----x-----5-----x-----5-----x-----5-----x-----4-----x-----4-----x-----4-----x-----4-----x-----4-----x-----4-----x-----4-----x-----4-----x--
G|--------6--x--------6--x--------6--x--------6--x--------4--x--------4--x--------4--x--------4--x--------4--x--------4--x--------4--x--------4--x--
D|--6--------x--6--------x--6--------x--6--------x--6--------x--6--------x--6--------x--6--------x--6--------x--6--------x--6--------x--6--------x--
A|-----------x-----------x-----------x-----------x-----------x-----------x-----------x-----------x-----------x-----------x-----------x-----------x--
E|-----------x-----------x-----------x-----------x-----------x-----------x-----------x-----------x-----------x-----------x-----------x-----------x--


Chorus: (0:54 - 1:07) When I find my home, the next artery...
E|--------x-----------x-----------x-----------x-----------x-----------x-----------x-----------x--
B|--8-----x-----8-----x-----7-----x-----7-----x-----8-----x-----8-----x-----5-----x-----5-----x--
G|-----9--x--------9--x--------7--x--------7--x--------7--x--------7--x--------5--x--------5--x--
D|--------x--9--------x--9--------x--9--------x--9--------x--9--------x--7--------x--7--------x--  2X
A|--------x-----------x-----------x-----------x-----------x-----------x-----------x-----------x--
E|--------x-----------x-----------x-----------x-----------x-----------x-----------x-----------x--
(1:08 - 1:13) Its probably a kiss goodbye then
E|-----------x-----------x-----------x-----------x-----------x-----------
B|-----8-----x-----8-----x-----7-----x-----7-----x-----8-----x-----8-----
G|--------9--x--------9--x--------7--x--------7--x--------7--x--------7--
D|--9--------x--9--------x--9--------x--9--------x--9--------x--9--------
A|-----------x-----------x-----------x-----------x-----------x-----------
E|-----------x-----------x-----------x-----------x-----------x-----------


Verse 2: (1:14 - 1:42) If you really love nothing, everybody's made up, everybody's losing...
E|--------x-----------x-----------x-----------x-----------x-----------x-----------x-----------x--
B|--5-----x-----5-----x-----5-----x-----5-----x-----4-----x-----4-----x-----4-----x-----4-----x--
G|-----4--x--------4--x--------4--x--------4--x--------4--x--------4--x--------4--x--------4--x--
D|--------x--6--------x--6--------x--6--------x--6--------x--6--------x--6--------x--6--------x--
A|--------x-----------x-----------x-----------x-----------x-----------x-----------x-----------x--
E|--------x-----------x-----------x-----------x-----------x-----------x-----------x-----------x--


E|-----------x-----------x-----------x-----------x-----------x-----------x-----------x-----------x--
B|-----4-----x-----4-----x-----4-----x-----4-----x-----4-----x-----4-----x-----4-----x-----4-----x--
G|--------6--x--------6--x--------6--x--------6--x--------4--x--------4--x--------4--x--------4--x--    2X
D|--6--------x--6--------x--6--------x--6--------x--6--------x--6--------x--6--------x--6--------x--
A|-----------x-----------x-----------x-----------x-----------x-----------x-----------x-----------x--
E|-----------x-----------x-----------x-----------x-----------x-----------x-----------x-----------x--


Verse 2 cont: (1:43 - 2:07 ) If you really love nothing, shall we speak in silent glory...
E|-----------x-----------x-----------x-----------x-----------x-----------x-----------x-----------x--
B|-----5-----x-----5-----x-----5-----x-----5-----x-----5-----x-----5-----x-----5-----x-----5-----x--
G|--------4--x--------4--x--------4--x--------4--x--------6--x--------6--x--------6--x--------6--x--
D|--6--------x--6--------x--6--------x--6--------x--6--------x--6--------x--6--------x--6--------x--
A|-----------x-----------x-----------x-----------x-----------x-----------x-----------x-----------x--
E|-----------x-----------x-----------x-----------x-----------x-----------x-----------x-----------x--

E|-----------x-----------x-----------x-----------x-----------x-----------x-----------x-----------x--
B|-----4-----x-----4-----x-----4-----x-----4-----x-----5-----x-----5-----x-----5-----x-----5-----x--
G|--------4--x--------4--x--------4--x--------4--x--------4--x--------4--x--------4--x--------4--x--
D|--6--------x--6--------x--6--------x--6--------x--6--------x--6--------x--6--------x--6--------x--
A|-----------x-----------x-----------x-----------x-----------x-----------x-----------x-----------x--
E|-----------x-----------x-----------x-----------x-----------x-----------x-----------x-----------x--

E|-----------x-----------x-----------x-----------x-----------x-----------x-----------x-----------x-----------x-----------x-----------x-----------x--
B|-----5-----x-----5-----x-----5-----x-----5-----x-----4-----x-----4-----x-----4-----x-----4-----x-----4-----x-----4-----x-----4-----x-----4-----x--
G|--------6--x--------6--x--------6--x--------6--x--------4--x--------4--x--------4--x--------4--x--------4--x--------4--x--------4--x--------4--x--
D|--6--------x--6--------x--6--------x--6--------x--6--------x--6--------x--6--------x--6--------x--6--------x--6--------x--6--------x--6--------x--
A|-----------x-----------x-----------x-----------x-----------x-----------x-----------x-----------x-----------x-----------x-----------x-----------x--
E|-----------x-----------x-----------x-----------x-----------x-----------x-----------x-----------x-----------x-----------x-----------x-----------x--


Chorus 2: (2:08 - 2:21) When I find my home, the next artery...
E|--------x-----------x-----------x-----------x-----------x-----------x-----------x-----------x--
B|--8-----x-----8-----x-----7-----x-----7-----x-----8-----x-----8-----x-----5-----x-----5-----x--
G|-----9--x--------9--x--------7--x--------7--x--------7--x--------7--x--------5--x--------5--x--
D|--------x--9--------x--9--------x--9--------x--9--------x--9--------x--7--------x--7--------x--  2X
A|--------x-----------x-----------x-----------x-----------x-----------x-----------x-----------x--
E|--------x-----------x-----------x-----------x-----------x-----------x-----------x-----------x--
Chorus 2 cont: (2:22 - 2:39) A kiss goodbye then...
E|-----------x-----------x-----------x-----------x-----------x-----------
B|-----8-----x-----8-----x-----10----x-----10----x-----5-----x-----5-----
G|--------9--x--------9--x--------11-x--------11-x--------5--x--------5--
D|--9--------x--9--------x--9--------x--9--------x--7--------x--7--------  2X
A|-----------x-----------x-----------x-----------x-----------x-----------
E|-----------x-----------x-----------x-----------x-----------x-----------
You can trace a hole up on your dress...
E|-----------x-----------x-----------x-----------x--
B|-----8-----x-----8-----x-----10----x-----10----x--
G|--------9--x--------9--x--------11-x--------11-x--
D|--9--------x--9--------x--9--------x--9--------x--
A|-----------x-----------x-----------x-----------x--
E|-----------x-----------x-----------x-----------x--


Chorus 3: (2:40 -2:54) On your dress, on your dress...
E|--7---7---7---7---x---9---9---9---9---x---7---7---7---7---x---11---11---11---11---x---
B|--9---9---9---9---x---9---9---9---9---x---9---9---9---9---x---12---12---12---12---x---
G|


Verse 3: (2:54 - 3:18) Breath in, it's optimal, read and, remember, the week's end, grading...
E|--------x-----------x-----------x-----------x-----------x-----------x-----------x-----------x-----------x-----------x-----------x-----------
B|--5-----x-----5-----x-----5-----x-----5-----x-----5-----x-----5-----x-----5-----x-----5-----x-----4-----x-----4-----x-----4-----x-----4-----
G|-----4--x--------4--x--------4--x--------4--x--------6--x--------6--x--------6--x--------6--x--------4--x--------4--x--------4--x--------4--
D|--------x--6--------x--6--------x--6--------x--6--------x--6--------x--6--------x--6--------x--6--------x--6--------x--6--------x--6--------
A|--------x-----------x-----------x-----------x-----------x-----------x-----------x-----------x-----------x-----------x-----------x-----------
E|--------x-----------x-----------x-----------x-----------x-----------x-----------x-----------x-----------x-----------x-----------x-----------

E|--------x-----------x-----------x-----------x-----------x-----------x-----------x-----------x-----------x-----------x-----------x-----------x-----------x-----------x-----------x-----------
B|--5-----x-----5-----x-----5-----x-----5-----x-----5-----x-----5-----x-----5-----x-----5-----x-----4-----x-----4-----x-----4-----x-----4-----x-----4-----x-----4-----x-----4-----x-----4-----
G|-----4--x--------4--x--------4--x--------4--x--------6--x--------6--x--------6--x--------6--x--------4--x--------4--x--------4--x--------4--x--------4--x--------4--x--------4--x--------4--
D|--------x--6--------x--6--------x--6--------x--6--------x--6--------x--6--------x--6--------x--6--------x--6--------x--6--------x--6--------x--6--------x--6--------x--6--------x--6--------
A|--------x-----------x-----------x-----------x-----------x-----------x-----------x-----------x-----------x-----------x-----------x-----------x-----------x-----------x-----------x-----------
E|--------x-----------x-----------x-----------x-----------x-----------x-----------x-----------x-----------x-----------x-----------x-----------x-----------x-----------x-----------x-----------


Outro: (3:18 - 4:25) When I find my hole, the next artery...
E|--------x-----------x-----------x-----------x-----------x-----------x-----------x-----------x--
B|--8-----x-----8-----x-----7-----x-----7-----x-----8-----x-----8-----x-----5-----x-----5-----x--
G|-----9--x--------9--x--------7--x--------7--x--------7--x--------7--x--------5--x--------5--x--
D|--------x--9--------x--9--------x--9--------x--9--------x--9--------x--7--------x--7--------x--  2X
A|--------x-----------x-----------x-----------x-----------x-----------x-----------x-----------x--
E|--------x-----------x-----------x-----------x-----------x-----------x-----------x-----------x--
It' goodbye then...
E|-----------x-----------x-----------x-----------x-----------x-----------
B|-----8-----x-----8-----x-----10----x-----10----x-----5-----x-----5-----
G|--------9--x--------9--x--------11-x--------11-x--------5--x--------5--
D|--9--------x--9--------x--9--------x--9--------x--7--------x--7--------  5X
A|-----------x-----------x-----------x-----------x-----------x-----------
E|-----------x-----------x-----------x-----------x-----------x-----------
With a goodbye, and a kiss
E|-----------x-----------x-----------x-----------x-5h
B|-----8-----x-----8-----x-----10----x-----10----x-5h
G|--------9--x--------9--x--------11-x--------11-x-5h
D|--9--------x--9--------x--9--------x--9--------x-7h
A|-----------x-----------x-----------x-----------x---
E|-----------x-----------x-----------x-----------x---












Paste any tab in acousterr's tab maker and we'll play it !!!
Now supports capo and sound effects for vibrato/pull-off/hammer/bends/mutes etc !!! Checkout help section
tabs and chords, guitar tabs, music transcription, music technology, deep learning, music information retrieval, transcribe into tabs & chords, chordify, music renditions, songsterr, reverbnation, tabulature, bollywood chords, ultimate guitar, yousician, guitar lessons, acoustic guitar, electric guitar, guitar tuner, 911 tabs