Guitar Tabs for Crying Leaves

(/) Slide Up  (\) Slide Down  (h) Hammer On  (p) Pull Off  (b) Bend (r) Release (v) Vibrato (x) Muted

Tabs for Song : 
BPM : 350

Song lyrics here 
E|--------------------------------------------------------------------------------------------------------------
B|--------------------------------------------------------------------------------------------------------------
G|--------8--------8--------8--------8--------8--------6--------6--------6--------6--------6--------11-------11-
D|--------6--------6--------6--------6--------6--------6--------6--------6--------6--------6--------9--------9--
A|--4--4--4--4--4--4--4--4--4--4--4--4--4--4--4--0--0--0--0--0--0--0--0--0--0--0--0--0--0--0--7--7--7--7--7--7--
E|--------------------------------------------------------------------------------------------------------------

Song lyrics here 
E|-----------------------------------------------------------------------------
B|-----------------------------------------------------------------------------
G|--------11-------11-------11-------------------------------------------------
D|--------9--------9--------9--------9--------9--------9--------9--------9-----
A|--7--7--7--7--7--7--7--7--7--6--6--6--6--6--6--6--6--6--6--6--6--6--6--6--6--
E|-----------------------------------------------------------------------------

E|--------------------------------------------------------------------------------------------------------------
B|--------------------------------------------------------------------------------------------------------------
G|--------8--------8--------8--------8--------8--------6--------6--------6--------6--------6--------11-------11-
D|--------6--------6--------6--------6--------6--------6--------6--------6--------6--------6--------9--------9--
A|--4--4--4--4--4--4--4--4--4--4--4--4--4--4--4--0--0--0--0--0--0--0--0--0--0--0--0--0--0--0--7--7--7--7--7--7--
E|--------------------------------------------------------------------------------------------------------------

E|-----------------------------------------------------------------------------------------
B|-----------------------------------------------------------------------------------------
G|--------11-------11-------11-------------------------------------------------------------
D|--------9--------9--------9--------9--------9--------9--------9--------9-----------------
A|--7--7--7--7--7--7--7--7--7--6--6--6--6--6--6--6--6--6--6--6--6--6--6--6--6--------------
E|-----------------------------------------------------------------------------------------
BPM: 500
E|--------------------------------x-----x--------------------------------------------x-----x--------------------------------------------x-----x--------------------------------------------x-----x--------------
B|--------------------------------x-----x--------------------------------------------x-----x--------------------------------------------x-----x--------------------------------------------x-----x--------------
G|-----6--------6--------6--------x--6--x-----6--------------------------------------x-----x-----------------9--------9--------9--------x--9--x-----9-----------8--------8--------8--------x--8--x-----8--------
D|-----6--------6--------6--------x--6--x-----6-----------7--------7--------7--------x--7--x-----7-----------9--------9--------9--------x--9--x-----9-----------8--------8--------8--------x--8--x-----8--------
A|--4--4-----4--4-----4--4--4--4--x--4--x--4--4-----4-----7--------7--------7--------x--7--x-----7--------7--7-----7--7-----7--7--7--7--x--7--x--7--7-----7--6--6-----6--6-----6--6--6--6--x--6--x--6--6-----6--
E|--------------------------------x-----x--------------5--5-----5--5-----5--5--5--5--x--5--x--5--5-----5--------------------------------x-----x--------------------------------------------x-----x--------------

B|--------------------------------x-----x--------------------------------------------x-----x--------------------------------------------x-----x--------------------------------------------x-----x--------------
B|--------------------------------x-----x--------------------------------------------x-----x--------------------------------------------x-----x--------------------------------------------x-----x--------------
G|-----6--------6--------6--------x--6--x-----6--------------------------------------x-----x-----------------9--------9--------9--------x--9--x-----9-----------8--------8--------8--------x--8--x-----8--------
D|-----6--------6--------6--------x--6--x-----6-----------7--------7--------7--------x--7--x-----7-----------9--------9--------9--------x--9--x-----9-----------8--------8--------8--------x--8--x-----8--------
A|--4--4-----4--4-----4--4--4--4--x--4--x--4--4-----4-----7--------7--------7--------x--7--x-----7--------7--7-----7--7-----7--7--7--7--x--7--x--7--7-----7--6--6-----6--6-----6--6--6--6--x--6--x--6--6-----6--
E|--------------------------------x-----x--------------5--5-----5--5-----5--5--5--5--x--5--x--5--5-----5--------------------------------x-----x--------------------------------------------x-----x--------------

G|--------------------------------x-----x--------------------------------------------x-----x--------------------------------------------x-----x--------------------------------------------x-----x--------------
B|--------------------------------x-----x--------------------------------------------x-----x--------------------------------------------x-----x--------------------------------------------x-----x--------------
G|-----6--------6--------6--------x--6--x-----6--------------------------------------x-----x-----------------9--------9--------9--------x--9--x-----9-----------8--------8--------8--------x--8--x-----8--------
D|-----6--------6--------6--------x--6--x-----6-----------7--------7--------7--------x--7--x-----7-----------9--------9--------9--------x--9--x-----9-----------8--------8--------8--------x--8--x-----8--------
A|--4--4-----4--4-----4--4--4--4--x--4--x--4--4-----4-----7--------7--------7--------x--7--x-----7--------7--7-----7--7-----7--7--7--7--x--7--x--7--7-----7--6--6-----6--6-----6--6--6--6--x--6--x--6--6-----6--
E|--------------------------------x-----x--------------5--5-----5--5-----5--5--5--5--x--5--x--5--5-----5--------------------------------x-----x--------------------------------------------x-----x--------------
BPM: 200
E|--------------------------------------------------------------------------------------------------------------------------------------------------------------------------------------------------------------------
B|--------------------------------------------------------------------------------------------------------------------------------------------------------------------------------------------------------------------
G|--------4--------6-----------------------------------------------------------------------------------------------------------------------------13----14-13----------------------------------------------------------
D|-----4--------6-----------7-----6--4-----------------------7--------------------------------------4--------6--------4--------11-------14----13----14----------11----9-----7-----6-----4--------------------------9--
A|--2--------4-----------6-----7--------2--------7--6-----6-----7--------9--7--9--6--9-----------4--------7--------4--------11-------14----12----------------11----9-----7-----6-----4--------6-----7-----9-----9-----
E|--------------------5--------------------5--7--------5-----------7--9-----------------5--4--5--------7--------5--------9--------12-------------------------------------------------------4-----5-----7-----9--------

E|--
B|--
G|--
D|--
A|--
E|--

E|--
B|--
G|--
D|--
A|--
E|--

E|--
B|--
G|--
D|--
A|--
E|--

E|--
B|--
G|--
D|--
A|--
E|--

E|--
B|--
G|--
D|--
A|--
E|--

E|--
B|--
G|--
D|--
A|--
E|--

E|--
B|--
G|--
D|--
A|--
E|--









Use manual mode to free up cursor. Paste any tab in acousterr tab maker and we'll play it !!!



































































Bass Tabs for Crying Leaves






G|-----------------------------------------------------------------------------------------------
D|-----------------------------------------------------------------------------------------------
A|-----------------------------------------------------------------------------------------------
E|--3-----4--------4--------4--------4--------4--------4--------1--------1--------1--------1-----




G|--
D|--
A|--
E|--



G|--
D|--
A|--
E|--



G|--
D|--
A|--
E|--



G|--
D|--
A|--
E|--



G|--
D|--
A|--
E|--



G|--
D|--
A|--
E|--



G|--
D|--
A|--
E|--

Guitar Tabs for Crying Leaves






E|--------------------------------------------------------------------------------------------------------------
B|--------------------------------------------------------------------------------------------------------------
G|--------6-----------------6-----------------6--------6-----------------6-----------------6--------8-----------
D|--------4-----------------4-----------------4--------6-----------------6-----------------6--------6-----------
A|--------2-----------------2-----------------2--------0-----------------0-----------------0--------4-----------
E|--------------------------------------------------------------------------------------------------------------


E|-----------------------------------------------------------------------------
B|-----------------------------------------------------------------------------
G|--------8-----------------8--------------------------------------------------
D|--------6-----------------6--------4-----------------4-----------------4-----
A|--------4-----------------4--------2-----------------2-----------------2-----
E|-----------------------------------------------------------------------------

E|--------------------------------------------------------------------------------------------------------------
B|--------------------------------------------------------------------------------------------------------------
G|--------6-----------------6-----------------6--------6-----------------6-----------------6--------8-----------
D|--------4-----------------4-----------------4--------6-----------------6-----------------6--------6-----------
A|--------2-----------------2-----------------2--------0-----------------0-----------------0--------4-----------
E|--------------------------------------------------------------------------------------------------------------

E|-----------------------------------------------------------------------------------------
B|-----------------------------------------------------------------------------------------
G|--------8-----------------8--------------------------------------------------------------
D|--------6-----------------6--------4-----------------4-----------------4-----------------
A|--------4-----------------4--------2-----------------2-----------------2-----------------
E|-----------------------------------------------------------------------------------------

E|--
B|--
G|--
D|--
A|--
E|--

E|--
B|--
G|--
D|--
A|--
E|--

E|--
B|--
G|--
D|--
A|--
E|--
BPM: 150
E|-----------------------------------------------------------------------------------------------------------------------------------------------------------------
B|-----------------------------------------------------------------------------------------------------------------------------------------------------------------
G|--6-----6-----6-----6-----6-----6-----6-----6-----------------------------------------------------9-----9-----9-----9-----9-----9-----9-----9-----6-----------4--
D|--6-----6-----6-----6-----6-----6-----6-----6-----7-----7-----7-----7-----7-----7-----7-----7-----9-----9-----9-----9-----9-----9-----9-----9-----6--------4-----
A|--4-----4-----4-----4-----4-----4-----4-----4-----7-----7-----7-----7-----7-----7-----7-----7-----7-----7-----7-----7-----7-----7-----7-----7-----4-----2--------
E|--------------------------------------------------5-----5-----5-----5-----5-----5-----5-----5--------------------------------------------------------------------

E|--------------------------------------------
B|--------------------------------------------
G|--------6-----------------9--------6--2-----
D|-----6-----------7-----9--------6-----2-----
A|--4-----------7-----7--------4--------0-----
E|-----------5--------------------------------

E|-----------------------------------------------------------------------------------------------------------------------------------------------------------------
B|-----------------------------------------------------------------------------------------------------------------------------------------------------------------
G|--6-----6-----6-----6-----6-----6-----6-----6-----------------------------------------------------9-----9-----9-----9-----9-----9-----9-----9-----6-----------4--
D|--6-----6-----6-----6-----6-----6-----6-----6-----7-----7-----7-----7-----7-----7-----7-----7-----9-----9-----9-----9-----9-----9-----9-----9-----6--------4-----
A|--4-----4-----4-----4-----4-----4-----4-----4-----7-----7-----7-----7-----7-----7-----7-----7-----7-----7-----7-----7-----7-----7-----7-----7-----4-----2--------
E|--------------------------------------------------5-----5-----5-----5-----5-----5-----5-----5--------------------------------------------------------------------

E|--------------------------------------------
B|--------------------------------------------
G|--------6-----------------9--------6--2-----
D|-----6-----------7-----9--------6-----2-----
A|--4-----------7-----7--------4--------0-----
E|-----------5--------------------------------

E|-----------------------------------------------------------------------------------------------------------------------------------------------------------------
B|-----------------------------------------------------------------------------------------------------------------------------------------------------------------
G|--6-----6-----6-----6-----6-----6-----6-----6-----------------------------------------------------9-----9-----9-----9-----9-----9-----9-----9-----6-----------4--
D|--6-----6-----6-----6-----6-----6-----6-----6-----7-----7-----7-----7-----7-----7-----7-----7-----9-----9-----9-----9-----9-----9-----9-----9-----6--------4-----
A|--4-----4-----4-----4-----4-----4-----4-----4-----7-----7-----7-----7-----7-----7-----7-----7-----7-----7-----7-----7-----7-----7-----7-----7-----4-----2--------
E|--------------------------------------------------5-----5-----5-----5-----5-----5-----5-----5--------------------------------------------------------------------

E|--------------------------------------------
B|--------------------------------------------
G|--------6-----------------9--------6--2-----
D|-----6-----------7-----9--------6-----2-----
A|--4-----------7-----7--------4--------0-----
E|-----------5--------------------------------

E|-----------------------------------------------------------------------------------------------------------------------------------------------------------------
B|-----------------------------------------------------------------------------------------------------------------------------------------------------------------
G|--6-----6-----6-----6-----6-----6-----6-----6-----------------------------------------------------9-----9-----9-----9-----9-----9-----9-----9-----6-----------4--
D|--6-----6-----6-----6-----6-----6-----6-----6-----7-----7-----7-----7-----7-----7-----7-----7-----9-----9-----9-----9-----9-----9-----9-----9-----6--------4-----
A|--4-----4-----4-----4-----4-----4-----4-----4-----7-----7-----7-----7-----7-----7-----7-----7-----7-----7-----7-----7-----7-----7-----7-----7-----4-----2--------
E|--------------------------------------------------5-----5-----5-----5-----5-----5-----5-----5--------------------------------------------------------------------

E|--------------------------------------------
B|--------------------------------------------
G|--------6-----------------9--------6--2-----
D|-----6-----------7-----9--------6-----2-----
A|--4-----------7-----7--------4--------0-----
E|-----------5--------------------------------

Guitar Tabs for Crying Leaves






E|--------------------------------------------------------------------------------------------------------------
B|--------------------------------------------------------------------------------------------------------------
G|--------6-----------------6-----------------6--------6-----------------6-----------------6--------8-----------
D|--------4-----------------4-----------------4--------6-----------------6-----------------6--------6-----------
A|--------2-----------------2-----------------2--------0-----------------0-----------------0--------4-----------
E|--------------------------------------------------------------------------------------------------------------


E|-----------------------------------------------------------------------------
B|-----------------------------------------------------------------------------
G|--------8-----------------8--------------------------------------------------
D|--------6-----------------6--------4-----------------4-----------------4-----
A|--------4-----------------4--------2-----------------2-----------------2-----
E|-----------------------------------------------------------------------------

E|--------------------------------------------------------------------------------------------------------------
B|--------------------------------------------------------------------------------------------------------------
G|--------6-----------------6-----------------6--------6-----------------6-----------------6--------8-----------
D|--------4-----------------4-----------------4--------6-----------------6-----------------6--------6-----------
A|--------2-----------------2-----------------2--------0-----------------0-----------------0--------4-----------
E|--------------------------------------------------------------------------------------------------------------

E|-----------------------------------------------------------------------------------------
B|-----------------------------------------------------------------------------------------
G|--------8-----------------8--------------------------------------------------------------
D|--------6-----------------6--------4-----------------4-----------------4-----------------
A|--------4-----------------4--------2-----------------2-----------------2-----------------
E|-----------------------------------------------------------------------------------------

E|--
B|--
G|--
D|--
A|--
E|--

E|--
B|--
G|--
D|--
A|--
E|--

E|--
B|--
G|--
D|--
A|--
E|--
BPM: 150
E|-----------------------------------------------------------------------------------------------------------------------------------------------------------------
B|-----------------------------------------------------------------------------------------------------------------------------------------------------------------
G|--6-----6-----6-----6-----6-----6-----6-----6-----------------------------------------------------9-----9-----9-----9-----9-----9-----9-----9-----6-----------4--
D|--6-----6-----6-----6-----6-----6-----6-----6-----7-----7-----7-----7-----7-----7-----7-----7-----9-----9-----9-----9-----9-----9-----9-----9-----6--------4-----
A|--4-----4-----4-----4-----4-----4-----4-----4-----7-----7-----7-----7-----7-----7-----7-----7-----7-----7-----7-----7-----7-----7-----7-----7-----4-----2--------
E|--------------------------------------------------5-----5-----5-----5-----5-----5-----5-----5--------------------------------------------------------------------

E|--------------------------------------------
B|--------------------------------------------
G|--------6-----------------9--------6--2-----
D|-----6-----------7-----9--------6-----2-----
A|--4-----------7-----7--------4--------0-----
E|-----------5--------------------------------

E|-----------------------------------------------------------------------------------------------------------------------------------------------------------------
B|-----------------------------------------------------------------------------------------------------------------------------------------------------------------
G|--6-----6-----6-----6-----6-----6-----6-----6-----------------------------------------------------9-----9-----9-----9-----9-----9-----9-----9-----6-----------4--
D|--6-----6-----6-----6-----6-----6-----6-----6-----7-----7-----7-----7-----7-----7-----7-----7-----9-----9-----9-----9-----9-----9-----9-----9-----6--------4-----
A|--4-----4-----4-----4-----4-----4-----4-----4-----7-----7-----7-----7-----7-----7-----7-----7-----7-----7-----7-----7-----7-----7-----7-----7-----4-----2--------
E|--------------------------------------------------5-----5-----5-----5-----5-----5-----5-----5--------------------------------------------------------------------

E|--------------------------------------------
B|--------------------------------------------
G|--------6-----------------9--------6--2-----
D|-----6-----------7-----9--------6-----2-----
A|--4-----------7-----7--------4--------0-----
E|-----------5--------------------------------

E|-----------------------------------------------------------------------------------------------------------------------------------------------------------------
B|-----------------------------------------------------------------------------------------------------------------------------------------------------------------
G|--6-----6-----6-----6-----6-----6-----6-----6-----------------------------------------------------9-----9-----9-----9-----9-----9-----9-----9-----6-----------4--
D|--6-----6-----6-----6-----6-----6-----6-----6-----7-----7-----7-----7-----7-----7-----7-----7-----9-----9-----9-----9-----9-----9-----9-----9-----6--------4-----
A|--4-----4-----4-----4-----4-----4-----4-----4-----7-----7-----7-----7-----7-----7-----7-----7-----7-----7-----7-----7-----7-----7-----7-----7-----4-----2--------
E|--------------------------------------------------5-----5-----5-----5-----5-----5-----5-----5--------------------------------------------------------------------

E|--------------------------------------------
B|--------------------------------------------
G|--------6-----------------9--------6--2-----
D|-----6-----------7-----9--------6-----2-----
A|--4-----------7-----7--------4--------0-----
E|-----------5--------------------------------

E|-----------------------------------------------------------------------------------------------------------------------------------------------------------------
B|-----------------------------------------------------------------------------------------------------------------------------------------------------------------
G|--6-----6-----6-----6-----6-----6-----6-----6-----------------------------------------------------9-----9-----9-----9-----9-----9-----9-----9-----6-----------4--
D|--6-----6-----6-----6-----6-----6-----6-----6-----7-----7-----7-----7-----7-----7-----7-----7-----9-----9-----9-----9-----9-----9-----9-----9-----6--------4-----
A|--4-----4-----4-----4-----4-----4-----4-----4-----7-----7-----7-----7-----7-----7-----7-----7-----7-----7-----7-----7-----7-----7-----7-----7-----4-----2--------
E|--------------------------------------------------5-----5-----5-----5-----5-----5-----5-----5--------------------------------------------------------------------

E|--------------------------------------------
B|--------------------------------------------
G|--------6-----------------9--------6--2-----
D|-----6-----------7-----9--------6-----2-----
A|--4-----------7-----7--------4--------0-----
E|-----------5--------------------------------
tabs and chords, guitar tabs, music transcription, music technology, deep learning, music information retrieval, transcribe into tabs & chords, chordify, music renditions, songsterr, reverbnation, tabulature, bollywood chords, ultimate guitar, yousician, guitar lessons, acoustic guitar, electric guitar, guitar tuner, 911 tabs