Guitar Tabs for Crying

(/) Slide Up  (\) Slide Down  (h) Hammer On  (p) Pull Off  (b) Bend (r) Release (v) Vibrato (x) Muted

Tabs for Song : Crying
BPM : 70

  0.00                                         .026                         
E|--------------------------------------------1--------------------------------------------------------------
B|--------3--5-----3--5-----3--5---5/7--3-----1--8--7--8---8/10-8--8--7--8---8/10-8--8--7--8--10-8-----------
G|--4--4--------4--------4-----------------4--1-----------------------------------------------------9--------
D|--------------------------------------------1--------------------------------------------------------10-7--
A|--------------------------------------------1--------------------------------------------------------------
E|--------------------------------------------1--------------------------------------------------------------
  0.40                             0.49                                0.57                       1.04
E|--------------------------------1-----------------------------7-----1--------------------7-----1--------------------
B|--4--4--4--4-----------5--7-----1-----5--7--8-----5--------------7--1--8-----5--------------7--1--------------------
G|--------------7--7--7--------7--1--7-----------7-----4--7--7--------1-----7-----4--7--7--------1--7--5---4h5--4-----
D|--------------------------------1-----------------------------------1--------------------------1-----------------7--
A|--------------------------------1-----------------------------------1--------------------------1--------------------
E|--------------------------------1-----------------------------------1--------------------------1--------------------
  1.10                    1.16                                      1.30
E|-----------------------1-----------------------------------------1-----------------------------------------------------
B|-----------------------1-----------------------------------------1-----------------------------------------------------
G|-----4-----------------1-----------------------------4---5p4-----1--------7-----------------7--------------------------
D|--7-----7--5---4h5--4--1--4--5--7--7--5--7--5--7--5-----------7--1--5--5-----5--7--5--4--5-----4--5--4--4--5--7--7--5--
A|-----------------------1-----------------------------------------1-----------------------------------------------------
E|-----------------------1-----------------------------------------1-----------------------------------------------------


  1.50                                      2.03
E|-----------12-------12-------12-14-------1-----------------------------------------------------------------------------
B|--12-12-15----12-15----12-15-------15-12-1--8--7--8---8/10-8--8--7--8---8/10-8--8--8--10-8--8-----8--10/12-12b13-12-10-
G|-----------------------------------------1-----------------------------------------------------9-----------------------
D|-----------------------------------------1-----------------------------------------------------------------------------
A|-----------------------------------------1-----------------------------------------------------------------------------
E|-----------------------------------------1-----------------------------------------------------------------------------
  2.17                                   2.32                                               2.44
E|--------10----------------10----------1--------------------7-----------------------7-----1--------------------
B|--8--8-----8--10-8--7--8-----7--8--7--1--8-----5--------------7--8-----5--------------7--1--13-12-13-12b13----
G|--------------------------------------1-----7-----4--7--7-----------7-----4--7--7--------1-----------------14-
D|--------------------------------------1--------------------------------------------------1--------------------
A|--------------------------------------1--------------------------------------------------1--------------------
E|--------------------------------------1--------------------------------------------------1--------------------
  2.51                    2.57              3.01                                   3.10
E|-----------------------1-----------------1--17-15-------------------------------1--------------------------------
B|--10-12-10b12----------1-----------------1--------10-8--------8--10/12-12b14-10-1--------15----------15-15b17----
G|--------------7--12-11-1--11-12-12/14-12-1---------------7/9--------------------1--12-12----12-14-12----------12-
D|-----------------------1-----------------1--------------------------------------1--------------------------------
A|-----------------------1-----------------1--------------------------------------1--------------------------------
E|-----------------------1-----------------1--------------------------------------1--------------------------------
  3.24
E|--------------7--8--7--8--10-10-10-10-
B|-----7--8--10-------------------------
G|--9-----------------------------------
D|--------------------------------------
A|--------------------------------------
E|--------------------------------------

Use manual mode to free up cursor. Paste any tab in acousterr tab maker and we'll play it !!!
tabs and chords, guitar tabs, music transcription, music technology, deep learning, music information retrieval, transcribe into tabs & chords, chordify, music renditions, songsterr, reverbnation, tabulature, bollywood chords, ultimate guitar, yousician, guitar lessons, acoustic guitar, electric guitar, guitar tuner, 911 tabs