Guitar Tabs for I Know A Place

(/) Slide Up  (\) Slide Down  (h) Hammer On  (p) Pull Off  (b) Bend (r) Release (v) Vibrato (x) Muted


Tabs for Song : 
BPM : 200

Intro
E|--------5-----------5-----------5-----------5-----------3-----------3-----------1-----------1-----
B|-----6-----------6-----------6-----------6-----------5-----------5-----------3-----------3--------
G|--7-----------7-----------5-----------5-----------4-----------4-----------2-----------2-----------
D|--------------------------------------------------------------------------------------------------
A|--------------------------------------------------------------------------------------------------
E|--------------------------------------------------------------------------------------------------

E|--------5-----------5-----------5-----------5-----------3-----------3-----------1-----------1-----
B|-----6-----------6-----------6-----------6-----------5-----------5-----------3-----------3--------
G|--7-----------7-----------5-----------5-----------4-----------4-----------2-----------2-----------
D|-----------------------------------------------------------------------------------------------0--
A|--------------------------------------------------------------------------------------------------
E|--------------------------------------------------------------------------------------------------

E|--------3-----------3-----------1-----------1-----------3-----------3-----------1-----------1-----
B|-----0-----------0-----------3-----------3-----------0-----------0-----------3-----------3--------
G|--------------------------2-----------2-----------------------------------2-----------2-----------
D|-----------0-----------------------------------0-----------0--------------------------------------
A|--2-----------2-----------------------------------2-----------2-----------------------------------
E|--------------------------------------------------------------------------------------------------


E|--------5-----------5-----------5-----------5-----------3-----------3-----1-----------------------
B|-----6-----------6-----------6-----------6-----------5-----------5--------3-----------------------
G|--7-----------7-----------5-----------5-----------4-----------4-----------2-----------------------
D|--------------------------------------------------------------------------------------------------
A|--------------------------------------------------------------------------------------------------
E|-----------------------------------------------------------------------------------------------5--

verse
E|--------------------------------------------------------------------------------------------------
B|--------------------------------------------------------------------------------------------------
G|-----7--------7-----------------------------------------------------------9--8--7-----------------
D|-----7--------7--------------3--------3--------------2--------2-----------9--8--7-----------------
A|-----5--------5--------------3--------3--------------2--------2-----------7--6--5--------5--7--5--
E|--5--------5-----------1--1--1-----1--1--------0--0--0-----0--0-----------------5-----7-----------
---
E|--------------------------------------------------------------------------------------------------
B|--------------------------------------------------------------------------------------------------
G|-----7--------7-----------------------------------------------------------9--8--7-----------------
D|-----7--------7--------------3--------3--------------2--------2-----------9--8--7-----------------
A|-----5--------5--------------3--------3--------------2--------2-----------7--6--5-----------------
E|--5--------5-----------1--1--1-----1--1--------0--0--0-----0--0-----------------5-----5--7--5--3--

E|--------------------------------------------------------------------------------------------------
B|--------------------------------------------------------------------------------------------------
G|-----------------------------7--------7--------------------------------------7--------------------
D|-----5--------5--------------7--------7--------------5--------5--------------7--------------------
A|-----5--------5--------------5--------5--------------5--------5--------------5-----------5--7--5--
E|--3--3-----3--3--------5--5--------5-----5--7--5--3--3-----3--3--------5--5-----7-----7-----------

E|--------------------------------------------------------------------------------------------------
B|--------------------------------------------------------------------------------------------------
G|-----7--------7-----------------------------------------------------------9--8--7-----------------
D|-----7--------7--------------3--------3--------------2--------2-----------9--8--7-----------------
A|-----5--------5--------------3--------3--------------2--------2-----------7--6--5--------5--7--8--
E|--5--------5-----------1--1--1-----1--1--------0--0--0-----0--0-----------------5--5--7-----------

E|--------------------------------------------------------------------------------------------------
B|--------------------------------------------------------------------------------------------------
G|--------------12----------------11----------10----------------9-----------------------------------
D|--------------12----------------11----------10----------------9-----------------------------------
A|--10----------10----10----9-----9-----8-----8-----7-----------7-----7-----7--------------5--7--8--
E|--------------------------------------------------------------------------------5--5--7-----------

E|--------------------------------------------------------------------------------------------------
B|--------------------------------------------------------------------------------------------------
G|--------------12----------------10----------------------------------------------------------------
D|--------------12----------------10----5-----------7-----------------------5-----------3-----2-----
A|--10----------10----10----9-----9-----5-----------7-----------------------5-----------3-----2-----
E|--------------------------------------3-----------5-----------------------3-----------1-----0-----



lead guitar first break
E|--5-----------------------5-----------------------3-----------------------1--------------
B|--------6-----------------------6-----------------------5-----------------------------3--
G|--------------7-----------------------5-----------------------4-----------------2--------
D|--------------------------------------------------------------------0--------------------
A|-----------------------------------------------------------------------------------------
E|-----------------------------------------------------------------------------------------

lead guitar second break

E|--x--x--5-----x--x--5-----x--x--5-----x--x--5-----x--x--3-----x--x--3-----x--x--1-----x--x--1-----
B|--x--x--6-----x--x--6-----x--x--6-----x--x--6-----x--x--5-----x--x--5-----x--x--3-----x--x--3-----
G|--x--x--7-----x--x--7-----x--x--5-----x--x--5-----x--x--4-----x--x--4-----x--x--2-----x--x--2-----
D|--x--x--------x--x--------x--x--------x--x--------x--x--------x--x--------x--x--------x--x--------
A|--x--x--------x--x--------x--x--------x--x--------x--x--------x--x--------x--x--------x--x--------
E|--x--x--------x--x--------x--x--------x--x--------x--x--------x--x--------x--x--------x--x--------

E|--17----------------------17----------------------15----------------------------------------------
B|--------18----------------------18----------------------17----------------17b19r17----15----------
G|--------------19----------------------17----------------------16----------------------------------
D|--------------------------------------------------------------------------------------------------
A|--------------------------------------------------------------------------------------------------
E|--------------------------------------------------------------------------------------------------

outro
E|--------------------------
B|--------------------------
G|--------------------------
D|--------------------------
A|-----------------5--7--8--
E|-----------5--7-----------

E|--------------------------------------------------------------------------------------------------------------
B|--------------------------------------------------------------------------------------------------------------
G|--------------12----------------11----------------------------------------------------------------------------
D|--------------12----------------11----------------------------7-----------5-----------5-----3-----2-----------
A|--10----------10----10----9-----9--------------10-12----------7-----10----5-----8-----5-----3-----2-----------
E|--------------------------------------10-12-13----------------5-----------3-----------3-----1-----0-----------

E|--------------------------------------------------------------------------
B|--------------------------------------------------------------------------
G|--------------------------------------------------------------------------
D|--------------------------7-----------5-----------5-----3-----2-----------
A|-----------10-12----------7-----10----5-----8-----5-----3-----2-----------
E|--10-12-13----------------5-----------3-----------3-----1-----0-----------

E|--------------------------------------------------------------------------
B|--------------------------------------------------------------------------
G|--------------------------------------------------------------------------
D|--------------------------7-----------5-----------5-----3-----2-----------
A|-----------10-12----------7-----10----5-----8-----5-----3-----2-----------
E|--10-12-13----------------5-----------3-----------3-----1-----0-----------

E|--------------------------------------
B|--------------------------------------
G|--------------------------------------
D|--------------------------------------
A|--------------------------------------
E|--10-12-10----9-----------------------

E|--------5-----------5-----------5-----------5-----------3-----------3-----------1-----		
B|-----6-----------6-----------6-----------6-----------5-----------5-----------------3--
G|--7-----------7-----------5-----------5-----------4-----------4-----------------------
D|--------------------------------------------------------------------------0--0--------
A|--------------------------------------------------------------------------------------
E|--------------------------------------------------------------------------------------

Use manual mode to free up cursor. Paste any tab in acousterr tab maker and we'll play it !!!
tabs and chords, guitar tabs, music transcription, music technology, deep learning, music information retrieval, transcribe into tabs & chords, chordify, music renditions, songsterr, reverbnation, tabulature, bollywood chords, ultimate guitar, yousician, guitar lessons, acoustic guitar, electric guitar, guitar tuner, 911 tabs