Guitar Tabs for All We Know

(/) Slide Up  (\) Slide Down  

Tabs for Song : All We Know - The Chainsmokers (feat. Phoebe Ryan)
BPM : 350 Capo: 5

INTRO
E|--------------------------------------------------------------------------------------------------
B|-----0--------0--------------3--------3--------------0--------0--------------0--------------------
G|--0--------0--------------0--------0--------------0--------0--------------0--------0--2-----------
D|--0-----------------------------------------------0-----------------------0-----------------------
A|--------------------------3-----------------------------------------------------------------------
E|--3-----------------------------------------------0-----------------------------------------------

E|--------------------------------------------------------------------------------------------------
B|-----0--------0--------------3--------3--------------0--------0--------------0--------------------
G|--0--------0--------------0--------0--------------0--------0--------------0--------0--2-----------
D|--0-----------------------------------------------0-----------------------0-----------------------
A|--------------------------3-----------------------------------------------------------------------
E|--3-----------------------------------------------0-----------------------------------------------

VERSE
          Fighting flames with fire...
E|----------------x-----------------------x-----------------------x-----------------------x---------
B|----------------x-----------------------x0----------------------x---------------------3--0--------
G|--------0-------x0--------0--------0--2-----------------0-------x0--------0--------0----x---------
D|--------0-------x0----------------------x-----------------------x---------0-------------x---------
A|----------------x---------3-------------x-----------------------x-----------------------x---------
E|--3-------------x3----------------------x---------0-------------x-----------------------x---------

E|----------------x-----------------------x-----------------------x---------------------------------
B|----------------x-----------------------x0----------------------x------------0--------------------
G|--------0-------x0--------0--------0--2-----------------0-------x0--------0--------0--2-----------
D|--------0-------x-----------------------x-----------------------x0--------0-----------------------
A|----------------x---------3-------------x-----------------------x---------------------------------
E|--3-------------x-----------------------x---------0-------------x0--------------------------------
          Are we fading lovers?...
E|----------------x-----------------------x-----------------------x-----------------------x---------
B|----------------x-----------------------x0----------------------x---------------------3--0--------
G|--------0-------x0--------0--------0--2-----------------0-------x0--------0--------0----x---------
D|--------0-------x0----------------------x-----------------------x---------0-------------x---------
A|----------------x---------3-------------x-----------------------x-----------------------x---------
E|--3-------------x3----------------------x---------0-------------x-----------------------x---------
                                                                                              We're...
E|----------------x-----------------------x-----------------------x---------------------------------
B|----------------x-----------------------x0----------------------x------------0--------------------
G|--------0-------x0--------0--------0--2-----------------0-------x0--------0--------0--2-----0-----
D|--------0-------x-----------------------x-----------------------x0--------0-----------------------
A|----------------x---------3-------------x-----------------------x---------------------------------
E|--3-------------x-----------------------x---------0-------------x0--------------------------------

BRIDGE
 ...falling apart, still we hold together...
E|--0--0--0-------x-----------------------x-----------------------x---------------------------------
B|-----------3----x---3--3--0-----3-------x------------0----------x0-----------0--------------------
G|----------------x---0--------------2----x---0--------0----------x0--------0--------0--2-----------
D|----------------x-----------------------x-----------------------x---------0-----------------------
A|----------------x---------3-------------x-----------------------x---------------------------------
E|--3-------------x---3-------------------x---------0-------------x0--------------------------------

E|--0--0--0-------x-----------------------x-----------------------x---------------------------------
B|-----------3----x---3--3--0-----3-------x------------0----------x0-----------0--------------------
G|----------------x---0--------------2----x---0--------0----------x0--------0--------0--2-----0-----
D|----------------x-----------------------x-----------------------x---------0-----------------------
A|----------------x---------3-------------x-----------------------x---------------------------------
E|--3-------------x---3-------------------x---------0-------------x0--------------------------------

E|----------------x-----------------------x-----------------------x---------------------------------
B|----------------x---0-------------------x-----------------------x------------0--------------------
G|--0-----0-----0------------2/-4\0-----0-----------------------0-----------0--------0--------0-----
D|----------------x-----------------------x---4-----2-------------x---------0-----------7-----------
A|----------------x----------3/-----------x---------------5-------x---------------------5-----------
E|--3-------------x-----------------------x---------0-------------x---------------------------------
                                                                                  I'll ride my...
E|--3-----3-----3-----7-----5-----7--5--3-----------------------3-----------------------------------
B|--------------------------------------------7-----5-----3-----------------------------------------
G|--------------------------------------------------------------------------------0-----0-----0-----
D|--------------------------------------------------------------------------------------------------
A|--------------------------3-----------3-----------------------------------------------------------
E|--3-----------3-----------------------------------0-----------0-----------------------------------

REFF
 ...bike up to the road...
E|--------------------------------------------------------------------------------------------------
B|--------0-----------------------------------------------0-----------------------------------------
G|--2-----------0-----0-----------------0-----0-----2-----------0-----0-----2-----0-----0-----0-----
D|--------------------------0-----------------------------------------------0--------0--------------
A|--------------------------3--------3--------------------------------------------------------------
E|--3--------3--------------------------------------0--------0--------------------------------------

E|--------------------------------------------------------------------------------------------------
B|--------0-----------------------------------------------0-----------------------------------------
G|--2-----------0-----0-----------------0-----0-----2-----------0-----0-----2-----0-----0-----0-----
D|--------------------------0-----------------------------------------------0--------0--------------
A|--------------------------3--------3--------------------------------------------------------------
E|--3--------3--------------------------------------0--------0--------------------------------------

E|--------------------------------------------------------------------------------------------------
B|--3-----3-----3-----0-----------------------------3-----3-----3-----0-----------------------------
G|--------------------------2-----------0-----0-----------------------------2-----0-----------0-----
D|--------------------------------------------------------------------------0-----------0-----------
A|--------------------------3--------3--------------------------------------------------------------
E|--3--------3--------------------------------------0--------0--------------------------------------

E|--------------------------------------------------------------------------------------------------
B|--------------------0-----------0--------------------------------------------0--------------------
G|--0-----0-----0-----------2--------2--0-----------------------0-----------0--------0--2-----0-----
D|--------------------------------------------4-----2-----0-----------------0-----------------------
A|--------------------------3--------3--------------------------------------------------------------
E|--3--------3--------------------------------------0--------0--------------------------------------






tabs and chords, guitar tabs, music transcription, music technology, deep learning, music information retrieval, transcribe into tabs & chords, chordify, music renditions, songsterr, reverbnation, tabulature, bollywood chords, ultimate guitar, yousician, guitar lessons, acoustic guitar, electric guitar, guitar tuner, 911 tabs