Guitar Tabs for I Dunno

(/) Slide Up  (\) Slide Down  (h) Hammer On  (p) Pull Off  (b) Bend (r) Release (v) Vibrato (x) Muted

Tabs for Song : 

Song lyrics here

E|-----2---4b5--4--2---------------------------------2h4--2--------------------------------------------------------------------------------------------------------------------------2--4--5--4--2-----------------------
B|--2-----------------5---2h3-----------------3--5-----------5--3-----------------------------2--3--5--7--5--3--2--------------------2--3--5--3--2--------------------------------2-----------------5---2h3--------------
G|------------------------------------------------------------------4/6--------------------4-----------------------------------2--4-----------------4--2-----------------------------------------------------------------
D|--------------------------------------------------------------------------------------------------------------------------------------------------------4--2-----------------------------------------------------------
A|--------------------------------------------------------------------------------------------------------------------------------------------------------------4--2--0--------------------------------------------------
E|-----------------------------------------------------------------------------------------------------------------------------------------------------------------------------------------------------------------------

E|--------2--4--2-----------------------------------------------
B|--3--5-----------5--3-----------------------2--3--5--7--5--3--
G|------------------------4/6--------------4--------------------
D|--------------------------------------------------------------
A|--------------------------------------------------------------
E|--------------------------------------------------------------


Song lyrics here
E|--
B|--
G|--
D|--
A|--
E|--

Paste any tab in acousterr's tab maker and we'll play it !!!
Now supports capo and sound effects for vibrato/pull-off/hammer/bends/mutes etc !!! Checkout help section
tabs and chords, guitar tabs, music transcription, music technology, deep learning, music information retrieval, transcribe into tabs & chords, chordify, music renditions, songsterr, reverbnation, tabulature, bollywood chords, ultimate guitar, yousician, guitar lessons, acoustic guitar, electric guitar, guitar tuner, 911 tabs