Guitar Tabs for Dunno

(/) Slide Up  (\) Slide Down  (h) Hammer On  (p) Pull Off  (b) Bend (r) Release (v) Vibrato (x) Muted

Tabs for Song : 

Song lyrics here
E|--------------------------------------------------------------------------------------------------------
B|--------------------------------------------------------------------------------------------------------
G|--------------------------------------------------------------------------------------------------------
D|--7--7--7--7--7--7--7--7--5--5--5--5--5--5--5--5--3--3--3--3--3--3--3--3--------------------------------
A|--------------------------------------------------------------------------5--5--5--5--5--5--5--5--------
E|--------------------------------------------------------------------------------------------------------

Intro x2
Palm mute second 

Song lyrics here
E|--------------------------------------------------------------
B|--------------------------------------------------------------
G|--------------------------------------------------------------
D|--7--7--7--7--7--5--5--5--5--5--3--3--3--3--3-----------------
A|-----------------------------------------------5--5--5--5--5--
E|--------------------------------------------------------------


E|--------------------------------------------------------------------------
B|--------------------------------------------------------------------------
G|--14-14-14-14-14-14-14-14-12-12-12-12-12-12-12-12-10-10-10-10-10-10-10-12b
D|--------------------------------------------------------------------------
A|--------------------------------------------------------------------------
E|--------------------------------------------------------------------------

E|-----------------------------------------------\
B|-----------------------------------------------
G|--14-14-14-14-12----12-12-12-10----10-10-10-8--
D|-----------------------------------------------
A|-----------------------------------------------
E|-----------------------------------------------


Paste any tab in acousterr's tab maker and we'll play it !!!
Now supports capo and sound effects for vibrato/pull-off/hammer/bends/mutes etc !!! Checkout help section
tabs and chords, guitar tabs, music transcription, music technology, deep learning, music information retrieval, transcribe into tabs & chords, chordify, music renditions, songsterr, reverbnation, tabulature, bollywood chords, ultimate guitar, yousician, guitar lessons, acoustic guitar, electric guitar, guitar tuner, 911 tabs