Guitar Tabs for I Could Sing Of Your Love Forever

(/) Slide Up  (\) Slide Down  (h) Hammer On  (p) Pull Off  (b) Bend (r) Release (v) Vibrato (x) Muted

Tabs for Song : 
BPM : 200

  Chorus and Verse
E|--------------------------------
B|--------------------------------
G|--------------------------------
D|--------------------------------
A|--2--------4--------------------
E|--------------------0--------2--

  Bridge
E|--------------------------------
B|--------------------------------
G|--------------------------------
D|--------------------------------
A|--4--------2--------------------
E|--------------------0--------2--

Paste any tab in acousterr's tab maker and we'll play it !!!
Now supports capo and sound effects for vibrato/pull-off/hammer/bends/mutes etc !!! Checkout help section
tabs and chords, guitar tabs, music transcription, music technology, deep learning, music information retrieval, transcribe into tabs & chords, chordify, music renditions, songsterr, reverbnation, tabulature, bollywood chords, ultimate guitar, yousician, guitar lessons, acoustic guitar, electric guitar, guitar tuner, 911 tabs