Guitar Tabs for Hymn To Joy - Beethoven

(/) Slide Up  (\) Slide Down  (h) Hammer On  (p) Pull Off  (b) Bend (r) Release (v) Vibrato

Tabs for Song : 

Song lyrics here
E|--------------------------------------------------------------------
B|--5--5---6--8--8--6--5--------------5--5--------5--5--6--8--8--6--5-
G|-----------------------7--5--5--7--------7--7-----------------------
D|--------------------------------------------------------------------
A|--------------------------------------------------------------------
E|--------------------------------------------------------------------


Song lyrics here
E|-----------------------------------------------------------------------
B|--------5--------5--6--5--------------5--5--6--8--8--6--5--------------
G|--7--7-----5--7-----------7--5--7--------------------------7--5--5--7--
D|-----------------------------------5-----------------------------------
A|-----------------------------------------------------------------------
E|-----------------------------------------------------------------------

E|-------------------------------------------------------
B|---5p5--5--5--6--8--8--6--5--------------5-------------
G|-----------------------------7--5--5--7-----7--5--5----
D|-------------------------------------------------------
A|-------------------------------------------------------
E|-------------------------------------------------------

Add more lines by placing cursor below and adding notes
tabs and chords, guitar tabs, music transcription, music technology, deep learning, music information retrieval, transcribe into tabs & chords, chordify, music renditions, songsterr, reverbnation, tabulature, bollywood chords, ultimate guitar, yousician, guitar lessons, acoustic guitar, electric guitar, guitar tuner, 911 tabs