Guitar Tabs for Mcc Hymn

(/) Slide Up  (\) Slide Down  (h) Hammer On  (p) Pull Off  (b) Bend (r) Release (v) Vibrato (x) Muted

Tabs for Song : MCC HYMN

I. MABALACAT COLLEGE
E|--------------------
B|--------------------
G|--------2--2--0-----
D|-----------------3--
A|--3--3--------------
E|--------------------
THE HONOR OF OUR BEING
E|--------------------------
B|--------------------------
G|-----------0-----0--2--2--
D|--3--0--3-----3-----------
A|--------------------------
E|--------------------------
YOU DRAW THE PATH TOWARDS THE BRIGHTER DESTINY
E|--------------------------------------
B|--------------------------------------
G|--2--3--2--0--0--2--3--2--0--2--0-----
D|-----------------------------------3--
A|--------------------------------------
E|--------------------------------------
AMIDST OUR INABILITEIS
E|--------------------------
B|--------------------------
G|-----------0--0-----0--2--
D|--3--0--3--------3--------
A|--------------------------
E|--------------------------
YOU GAVE US HOPEVTO LIVE VICTORIOUSLY
E|--------------------------------
B|--------------------------------
G|--2--0--0--0--0--0--0--2--3--5--
D|--------------------------------
A|--------------------------------
E|--------------------------------

CHORUS
HAIL TO YOU MY DEAREST ALMA MATER
E|--------------------------------
B|--------------------------------
G|--5--3--2--2--0--2--3--2--0-----
D|-----------------------------3--
A|--------------------------------
E|--------------------------------
FOR SURE WE WILL NOT FAIL YOU
E|-----------------------
B|-----------------------
G|-----3--3--3--2--2--0--
D|--3--------------------
A|-----------------------
E|-----------------------
THE TORCH YOU LIT WILL ALWAYS SHINE IN GLORY,
E|-----------------------------------
B|-----------------------------------
G|--------------------------0--2--2--
D|--3--2--2--2--2--2--2--3-----------
A|-----------------------------------
E|-----------------------------------
FOR FAMILY AND COUNTRY AND GOD'S GLORY
E|-----------------------------------
B|-----------------------------------
G|--2--3--3--3--2--0--0--2--3--5--5--
D|-----------------------------------
A|-----------------------------------
E|-----------------------------------
II. EXCELLENCE WILL ALWAYS BE SEEN IN US
E|-----------------------------------
B|-----------------------------------
G|--------2--2--0--2--3--2--0--------
D|-----------------------------3--3--
A|--3--3-----------------------------
E|-----------------------------------
IN OUR WORKPLACE AND IN OUR COMMUNITY
E|-----------------------------------
B|-----------------------------------
G|--------------------0--0-----0--2--
D|--3--2--0--0--2--3--------3--------
A|-----------------------------------
E|-----------------------------------
THE VALUES AND WISDOM, YOU MADE US EMBRACE
E|-----------------------------------
B|-----------------------------------
G|-----------------0--0--2--2--3--5--
D|--3--0--3--3--2--------------------
A|-----------------------------------
E|-----------------------------------
OUR LIFE WILL MAKE A DIFFERENCE
E|-----------------------------
B|-----------------------------
G|--3--2--0--0--0--0--2--3--5--
D|-----------------------------
A|-----------------------------
E|-----------------------------
(REPEAT CHORUS)

MABALACAT COLLEGE, HAIL TO YOU!!
E|-----------------------------
B|-----------------------------
G|--5--3--2--2--3--5--7--9--10-
D|-----------------------------
A|-----------------------------
E|-----------------------------

Paste any tab in acousterr's tab maker and we'll play it !!!
Now supports capo and sound effects for vibrato/pull-off/hammer/bends/mutes etc !!! Checkout help section
tabs and chords, guitar tabs, music transcription, music technology, deep learning, music information retrieval, transcribe into tabs & chords, chordify, music renditions, songsterr, reverbnation, tabulature, bollywood chords, ultimate guitar, yousician, guitar lessons, acoustic guitar, electric guitar, guitar tuner, 911 tabs