Guitar Tabs for Humko Humi Se

E|--------9-----7-----9-----7--5---5/7-----------
B|---5/7--------------------------------9--------
G|-----------------------------------------------
D|-----------------------------------------------
A|-----------------------------------------------
E|-----------------------------------------------

E|--------7-----5-----7-----5--4---4/5--------
B|---3/5--------------------------------7-----
G|--------------------------------------------
D|--------------------------------------------
A|--------------------------------------------
E|--------------------------------------------

E|---4/5--4------------------2/4--2--------------
B|------------7/9--7------------------5/7--5-----
G|-----------------------------------------------
D|-----------------------------------------------
A|-----------------------------------------------
E|-----------------------------------------------

E|---4/5--4-----4--7--4---------2/4--2--------------
B|-----------7-----------7---------------5/7--5-----
G|--------------------------------------------------
D|--------------------------------------------------
A|--------------------------------------------------
E|--------------------------------------------------
 
E|--------------5--5--5-----7-----9------------------2/5--5--4--2-----2-----------------5--5--5-----7-----9-----------
B|--2--2--2------------------------------9/10-7--------------------5-----5--3--2--2---------------------------9/10-7--
G|--------------------------------------------------------------------------------------------------------------------
D|--------------------------------------------------------------------------------------------------------------------
A|--------------------------------------------------------------------------------------------------------------------
E|--------------------------------------------------------------------------------------------------------------------

E|--------9-----7-----9-----7--5---5/7-----------
B|---5/7--------------------------------9--------
G|-----------------------------------------------
D|-----------------------------------------------
A|-----------------------------------------------
E|-----------------------------------------------

E|--------7-----5-----7-----5--4---4/5--------
B|---3/5--------------------------------7-----
G|--------------------------------------------
D|--------------------------------------------
A|--------------------------------------------
E|--------------------------------------------


tabs and chords, guitar tabs, music transcription, music technology, deep learning, music information retrieval, transcribe into tabs & chords, chordify, music renditions, songsterr, reverbnation, tabulature, bollywood chords, ultimate guitar, yousician, guitar lessons, acoustic guitar, electric guitar, guitar tuner, 911 tabs