Https://youtu.be/eatzcavjrms - Guitar Tabs

(/) Slide Up  (\) Slide Down  (h) Hammer On  (p) Pull Off  (b) Bend (r) Release (v) Vibrato (x) Muted

Tabs & Chords
BPM : 125.0
Check Track 2 for Chord Positions 

                                                                                              
E|--------------------------------------------------------------------------------------------
B|--------------------------------------------------------------------------------------------
G|--------0--0--0--0-----------------------0--0--0--0--0--2--2--------------0--0--0--0--0-----
D|-----------------------3--3--1--2-----------------------------1--2-----------------------3--
A|--3--------------------------------3--------------------------------3-----------------------
E|--------------------------------------------------------------------------------------------

                                  C                                G                       Am 
E|--------------------------------------------0--------------------0--------------------------
B|--------------------------------1--1-----4--------3--1--1-----4-----------3--1-----3--------
G|--------------------------------------------------------------------------------------------
D|--3--3--2--0--2-----0--0--0-----------------------------------------------------------------
A|-----------------------------------------------------------------------------------------0--
E|-----------------------------------------------------------------------3--------------------

                      F                       C                       G                       
E|--------------------------------------------3-----------------------3-----------------------
B|--------------------------------------1--1--------------1-----1-----------------1-----0--3--
G|--------------------------------------------------0-----------------------0-----------------
D|--------------------------------------------------------------------------------------------
A|--0--0--0-----0-----------------------------------------------------------------------------
E|--------------------1--1--1--1--1-----------------------------------------------------------

    Am                      F                          C                       G              
E|-----------------------------1-----------------------0--1--0-----------------0-----0--------
B|--3--------------------------------------------1--3--------------------------------------3--
G|-----------------------------------------------------------------0-----0--------------------
D|--------------------------------------------------------------------------------------------
A|--------0--0--0-----0-----------------------------------------------------------------------
E|--------------------------1-----1--1--1-----1-----------------------------------------------

          Am                               F  
E|--------------------------------------------
B|--------3--3-----1--------------------------
G|--0-----------------0--0--0-----------------
D|-----------------------------3--3--3--2-----
A|--------------------------------------------
E|-----------------------------------------1--

Https://youtu.be/eatzcavjrms - Guitar Tabs






                                                                                              
E|--------------------------------------------------------------------------------------------
B|--------------------------------------------------------------------------------------------
G|--------------------------------------------------------------------------------------------
D|--------------------------------------------------------------------------------------------
A|--------------------------------------------------------------------------------------------
E|--------------------------------------------------------------------------------------------

                                  C                                G                       Am 
E|--------------------------------0--------------------------------3-----------------------0--
B|--------------------------------1--------------------------------3-----------------------1--
G|--------------------------------0--------------------------------4-----------------------2--
D|--------------------------------2--------------------------------5-----------------------2--
A|--------------------------------3--------------------------------5-----------------------0--
E|-----------------------------------------------------------------3--------------------------

                      F                       C                       G                       
E|--------------------1-----------------------0-----------------------3-----------------------
B|--------------------1-----------------------1-----------------------3-----------------------
G|--------------------2-----------------------0-----------------------4-----------------------
D|--------------------3-----------------------2-----------------------5-----------------------
A|--------------------3-----------------------3-----------------------5-----------------------
E|--------------------1-----------------------------------------------3-----------------------

    Am                      F                          C                       G              
E|--0-----------------------1--------------------------0-----------------------3--------------
B|--1-----------------------1--------------------------1-----------------------3--------------
G|--2-----------------------2--------------------------0-----------------------4--------------
D|--2-----------------------3--------------------------2-----------------------5--------------
A|--0-----------------------3--------------------------3-----------------------5--------------
E|--------------------------1--------------------------------------------------3--------------

          Am                               F  
E|--------0--------------------------------1--
B|--------1--------------------------------1--
G|--------2--------------------------------2--
D|--------2--------------------------------3--
A|--------0--------------------------------3--
E|-----------------------------------------1--

tabs and chords, guitar tabs, music transcription, music technology, deep learning, music information retrieval, transcribe into tabs & chords, chordify, music renditions, songsterr, reverbnation, tabulature, bollywood chords, ultimate guitar, yousician, guitar lessons, acoustic guitar, electric guitar, guitar tuner, 911 tabs