Guitar Tabs for Https://youtu.be/6sx6ujaldg0

(/) Slide Up  (\) Slide Down  (h) Hammer On  (p) Pull Off  (b) Bend (r) Release (v) Vibrato (x) Muted

Tabs & Chords
BPM : 156.0
Check Track 2 for Chord Positions 

                      A                                                  E                    
E|--------------------------9--------------------------9--------------------------------------
B|-----9--9--10-10----12----------10----10-12----10-12-------10----12----9-----12----10----9--
G|--11----------------------------------------------------------------------------------------
D|--------------------------------------------------------------------------------------------
A|--------------------------------------------------------------------------------------------
E|--------------------------------------------------------------------------------------------

             A                                                                                
E|-----------0--------------------------------9--9-----------9-----------------------9--------
B|-----9-----------------9-----10----12----12----------12----------12-11-10-10-12----------12-
G|--11-------------11-------------------------------------------------------------------------
D|--------------------------------------------------------------------------------------------
A|--------------------------------------------------------------------------------------------
E|--------------------------------------------------------------------------------------------

                                                             A                                   
E|--------9--------------------------------------------------------------------------------------
B|-----12-------12----10-9--10----12----10----12----10----9--------9-----------9-----10-10----12-
G|-----------------------------------------------------------12-11-------11----------------------
D|-----------------------------------------------------------------------------------------------
A|-----------------------------------------------------------------------------------------------
E|-----------------------------------------------------------------------------------------------

                                                                               
E|-----------9-----------9-----------------------9-----------9-----------------
B|-----12----------12----------12-10-10-10-12----------12----------12----10-10-
G|-----------------------------------------------------------------------------
D|-----------------------------------------------------------------------------
A|-----------------------------------------------------------------------------
E|-----------------------------------------------------------------------------

Guitar Tabs for Https://youtu.be/6sx6ujaldg0






                      A                                                  E                    
E|--------------------0--------------------------------------------------0--------------------
B|--------------------2--------------------------------------------------0--------------------
G|--------------------2--------------------------------------------------1--------------------
D|--------------------2--------------------------------------------------2--------------------
A|--------------------0--------------------------------------------------2--------------------
E|-----------------------------------------------------------------------0--------------------

             A                                                                                
E|-----------0--------------------------------------------------------------------------------
B|-----------2--------------------------------------------------------------------------------
G|-----------2--------------------------------------------------------------------------------
D|-----------2--------------------------------------------------------------------------------
A|-----------0--------------------------------------------------------------------------------
E|--------------------------------------------------------------------------------------------

                                                             A                                   
E|-----------------------------------------------------------0-----------------------------------
B|-----------------------------------------------------------2-----------------------------------
G|-----------------------------------------------------------2-----------------------------------
D|-----------------------------------------------------------2-----------------------------------
A|-----------------------------------------------------------0-----------------------------------
E|-----------------------------------------------------------------------------------------------

                                                                               
E|-----------------------------------------------------------------------------
B|-----------------------------------------------------------------------------
G|-----------------------------------------------------------------------------
D|-----------------------------------------------------------------------------
A|-----------------------------------------------------------------------------
E|-----------------------------------------------------------------------------

tabs and chords, guitar tabs, music transcription, music technology, deep learning, music information retrieval, transcribe into tabs & chords, chordify, music renditions, songsterr, reverbnation, tabulature, bollywood chords, ultimate guitar, yousician, guitar lessons, acoustic guitar, electric guitar, guitar tuner, 911 tabs