Guitar Tabs for How Will I Know Guitar

(/) Slide Up  (\) Slide Down  (h) Hammer On  (p) Pull Off  (b) Bend (r) Release (v) Vibrato (x) Muted

Tabs & Chords
BPM : 117.0
Check Track 2 for Chord Positions 

       F#       C#          F#                            C#                            F#       
E|--2--1--2-----4-----2-----------2--1--------1-----------------1-----2-----1-----2-----------2--
B|--------------------------2--4-----------2--------2-----2-----------------------------2--------
G|-----------------------------------------------------------------------------------------------
D|-----------------------------------------------------------------------------------------------
A|-----------------------------------------------------------------------------------------------
E|-----------------------------------------------------------------------------------------------

       C#                                     C#                               F#          C# 
E|-----1-----4-----2-----------1--------------2-----1-----2-----1--------2-----1-----------1--
B|-----------------------2-----------2--2--2--------------------------2-----------2--2--------
G|--------------------------------------------------------------------------------------------
D|--------------------------------------------------------------------------------------------
A|--------------------------------------------------------------------------------------------
E|--------------------------------------------------------------------------------------------

                      F#                C#             F#                C#                D#m
E|--------4-----------------------2-----1-----1-----2--2--------------1--1-----1-----2--------
B|--2-----------2-----2--2--2--------------------------------2--2--------------------------2--
G|--------------------------------------------------------------------------------------------
D|--------------------------------------------------------------------------------------------
A|--------------------------------------------------------------------------------------------
E|--------------------------------------------------------------------------------------------

       
E|-----
B|--4--
G|-----
D|-----
A|-----
E|-----

Guitar Tabs for How Will I Know Guitar






       F#       C#          F#                            C#                            F#       
E|-----2--------4-----------2-----------------------------4-----------------------------2--------
B|-----2--------6-----------2-----------------------------6-----------------------------2--------
G|-----3--------6-----------3-----------------------------6-----------------------------3--------
D|-----4--------6-----------4-----------------------------6-----------------------------4--------
A|-----4--------4-----------4-----------------------------4-----------------------------4--------
E|-----2--------------------2-----------------------------------------------------------2--------

       C#                                     C#                               F#          C# 
E|-----4--------------------------------------4--------------------------------2-----------4--
B|-----6--------------------------------------6--------------------------------2-----------6--
G|-----6--------------------------------------6--------------------------------3-----------6--
D|-----6--------------------------------------6--------------------------------4-----------6--
A|-----4--------------------------------------4--------------------------------4-----------4--
E|-----------------------------------------------------------------------------2--------------

                      F#                C#             F#                C#                D#m
E|--------------------2-----------------4--------------2-----------------4-----------------6--
B|--------------------2-----------------6--------------2-----------------6-----------------7--
G|--------------------3-----------------6--------------3-----------------6-----------------8--
D|--------------------4-----------------6--------------4-----------------6-----------------8--
A|--------------------4-----------------4--------------4-----------------4-----------------6--
E|--------------------2--------------------------------2--------------------------------------

       
E|-----
B|-----
G|-----
D|-----
A|-----
E|-----

tabs and chords, guitar tabs, music transcription, music technology, deep learning, music information retrieval, transcribe into tabs & chords, chordify, music renditions, songsterr, reverbnation, tabulature, bollywood chords, ultimate guitar, yousician, guitar lessons, acoustic guitar, electric guitar, guitar tuner, 911 tabs