Guitar Tabs for How Will I Know

(/) Slide Up  (\) Slide Down  (h) Hammer On  (p) Pull Off  (b) Bend (r) Release (v) Vibrato (x) Muted

Tabs & Chords
BPM : 133.0
Check Track 2 for Chord Positions 

          D#                                  G#       A#    Cm                A#    D#       
E|--------------------------20----------------------------------------------------------------
B|--------------------------------------------------------------------------------------------
G|-----------------12----11-------------------------------------------------------------------
D|--13-13-12-13-13-------------------------------13----12----13----------------------13----13-
A|--------------------------------------------------------------------------------------------
E|-----------------------------------6-----3--4--------------------6-----------6--------------

       G#          A# D#    G#    A#                B        D#       G#          A#          
E|-----------------11-------------------------------------------------------------------------
B|--------------------12-------------------------11-------------------------------------12----
G|--------------------------12-10-10-10----10-10----10-12-10-11-10-------------------------12-
D|-----13-------------------------------------------------------------13----------------------
A|--------------------------------------------------------------------------13----------------
E|--------------------------------------------------------------------------------11----------

       G#                      D#       G#          D#          
E|-----------13-14----------------------------------------------
B|-----13-------------------------------------------11-11-13----
G|-----------------10----------10-------------------------------
D|-----------------------13-------13----------------------------
A|-----------------------------------------------------------13-
E|--------------------------------------4-----------------------











Guitar Tabs for How Will I Know






          D#                                  G#       A#    Cm                A#    D#       
E|--------6-----------------------------------4--------1-----3-----------------1-----6--------
B|--------8-----------------------------------4--------3-----4-----------------3-----8--------
G|--------8-----------------------------------5--------3-----5-----------------3-----8--------
D|--------8-----------------------------------6--------3-----5-----------------3-----8--------
A|--------6-----------------------------------6--------1-----3-----------------1-----6--------
E|--------------------------------------------4-----------------------------------------------

       G#          A# D#    G#    A#                B        D#       G#          A#          
E|-----4-----------1--6-----4-----1-----------------2--------6--------4-----------1-----------
B|-----4-----------3--8-----4-----3-----------------4--------8--------4-----------3-----------
G|-----5-----------3--8-----5-----3-----------------4--------8--------5-----------3-----------
D|-----6-----------3--8-----6-----3-----------------4--------8--------6-----------3-----------
A|-----6-----------1--6-----6-----1-----------------2--------6--------6-----------1-----------
E|-----4--------------------4-----------------------------------------4-----------------------

       G#                      D#       G#          D#          
E|-----4-----------------------6--------4-----------6-----------
B|-----4-----------------------8--------4-----------8-----------
G|-----5-----------------------8--------5-----------8-----------
D|-----6-----------------------8--------6-----------8-----------
A|-----6-----------------------6--------6-----------6-----------
E|-----4--------------------------------4-----------------------

tabs and chords, guitar tabs, music transcription, music technology, deep learning, music information retrieval, transcribe into tabs & chords, chordify, music renditions, songsterr, reverbnation, tabulature, bollywood chords, ultimate guitar, yousician, guitar lessons, acoustic guitar, electric guitar, guitar tuner, 911 tabs