Guitar Tabs for House Of The Rising Sun (solo)


House of the Rising Sun (solo)

         Am              C              D           D          Am                       C           E          Am         
E|--------0--------------0--------------2-----------2-----------0-----------------------0-----------0-----------0--
B|--------1--------------1--------------3-----------3-----------1-----------------------1-----------0-----------1--
G|--------2--------------0--------------2-----------2-----2-----2-----2--0--------------0-----------1-----2-----2--
D|--------2--------------2-----2--0-----0-----------0-----------2-----------2--0--2-----2-----2-----2-----------2--
A|--0------------2--3----3------------------0--0----------------------------------------3-----------2---------------
E|--------------------------------------------------------------------------------------------------0--------------
       
   
             C              D           D                       Am Am
E|-----------0--------------2-----------2-----------------------0--0-----
B|-----------1--------------3-----------3-----------------------1--1-----
G|-----------0--------------2-----------2-----------------------2--2-----
D|-----------2-----2--0-----0-----------0-----2--0--------------2--2-----
A|--0--3-----3-----------------0--0-----------------2--3--0--------------
E|-----------------------------------------------------------------------



tabs and chords, guitar tabs, music contests, music covers, songsterr, reverbnation, renditions, tabulature, bollywood chords, ultimate guitar, yousician, guitar lessons, torrins, fender, gibson, acoustic guitar, electric guitar, youtube covers, gootar, guitar tuner, A-Z tabs, 911 tabs