Guitar Tabs for Hotel California Solo

(/) Slide Up  (\) Slide Down  (h) Hammer On  (p) Pull Off  (b) Bend (r) Release (v) Vibrato (x) Muted

Tabs for Song : Hotel California Solo Tabs

Solo
E|-----------------------------------------------------------------
B|-----------10h12/15~------10h12----------------7-----------------
G|---6/11-------------------------11\9------7h9-----7--------------
D|-----------------------------------------------------9---8v------
A|-----------------------------------------------------------------
E|-----------------------------------------------------------------

E|-----------------------
B|-----------------------
G|-----------------------
D|---9h12p9----7/8v------
A|-----------------------
E|-----------------------

E|-----------------------------------------------------10-------------------------
B|--------7--------------------7-----------------10/12----12\10~---7--10--9v------
G|---7h9-----7------------7h9-----7-----------7-----------------------------------
D|--------------9--8---9~------------9--8--9--------------------------------------
A|--------------------------------------------------------------------------------
E|--------------------------------------------------------------------------------

E|--7-----10/12-------10----12p10----------10----------------
B|-----7--------------------------12-10/12----12\10--8v------
G|-----------------------------------------------------------
D|-----------------------------------------------------------
A|-----------------------------------------------------------
E|-----------------------------------------------------------

E|--------10----------------------------
B|--------------------------------------
G|---9/11-------11\9---7--7\6-----7v----
D|--------------------------------------
A|--------------------------------------
E|--------------------------------------


E|-----------------------------------------------
B|--------7-----7--------------7--7--7-----------
G|---7h9--------------9--7--9--------------9--7--
D|-----------------------------------------------
A|-----------------------------------------------
E|-----------------------------------------------

E|-----------------7-----------------
B|-----7--10----7--------------------
G|--9--------9--------9--9--7---9/11-
D|-----------------------------------
A|-----------------------------------
E|-----------------------------------
tabs and chords, guitar tabs, music transcription, music technology, deep learning, music information retrieval, transcribe into tabs & chords, chordify, music renditions, songsterr, reverbnation, tabulature, bollywood chords, ultimate guitar, yousician, guitar lessons, acoustic guitar, electric guitar, guitar tuner, 911 tabs