Guitar Tabs for Hotel California Intro

capo on 7th fret

E|--------------------------0--------------------
B|-----------------0-----------------------------
G|-----------0-----------0-----------0-----2-----
D|--2-----2--------------------------------------
A|--2--------------------------------------------
E|--0--------------------------------------------

E|-----------------2--------------------
B|-----------0-----------0--------------
G|--------2-----------------------------
D|--1-----------------------1-----------
A|--------------------------------------
E|--------------------------------------

E|-----------------0--------------------------------
B|-----------3-----------3-----------3-----------0--
G|--------2-----------------------2-----------2-----
D|--0-----------------------------------0-----------
A|--------------------------0-----------------------
E|--------------------------------------------------

E|--------------------------0--------
B|-----------------0-----------------
G|-----------0-----------0-----------
D|--------2--------------------------
A|--4--------------------------------
E|-----------------------------------

E|-----------------------------0--------------------
B|--------------------1-----------------1-----------
G|--------------0-----------0--------------------0--
D|-----------2------------------------------0h2-----
A|-----3-----------------------------3--------------
E|--------------------------------------------------

E|--------------------3--------------------------------
B|--------------0-----------0-----------0-----------0--
G|-----------0-----------------------0-----------0-----
D|-----0-----------------------------------------------
A|-----------------------------2-----------------------
E|-----------------------------------------3-----------

E|--------------------------0-----------------------
B|-----------------1-----------------1-----------0--
G|-----------2-----------2--------------------------
D|--------2-----------------------2-----------2-----
A|--0-----------------------------------------------
E|--------------------------------------0-----------

E|-----------------------------2--------
B|--------------------0-----------------
G|--------------2-----------2-----------
D|-----------1--------------------------
A|-----2--------------------------------
E|--------------------------------------

E|-----0--
B|-----0--
G|-----0--
D|-----2--
A|-----2--
E|-----0--





tabs and chords, guitar tabs, music transcription, music technology, deep learning, music information retrieval, transcribe into tabs & chords, chordify, music renditions, songsterr, reverbnation, tabulature, bollywood chords, ultimate guitar, yousician, guitar lessons, acoustic guitar, electric guitar, guitar tuner, 911 tabs