Guitar Tabs for Hona Tha Pyar Hua Mere Yaar

Tabs for Song : Hona Tha Pyar Hua Mere Yaar

Hona Tha Pyar Hua Mere Yaar
E|-----------5-----4--4--4-----4--5-----
B|--7-----5-----------------7-----------
G|--------------------------------------
D|--------------------------------------
A|--------------------------------------
E|--------------------------------------

Hona Tha Pyar Hua Mere Yaar
E|-----------5-----4--4--4-----4--5-----
B|--7-----5-----------------7-----------
G|--------------------------------------
D|--------------------------------------
A|--------------------------------------
E|--------------------------------------

Aaye Nazar Chahre Hazaaar ....
E|--11----12-7--4--4-----4--7--5--------
B|--------------------------------7-----
G|--------------------------------------
D|--------------------------------------
A|--------------------------------------
E|--------------------------------------

Hona Tha Pyar Hoa Mere Yaar....
E|--------5-----4--4--4-----4--5-----
B|--7--5-----------------7-----------
G|-----------------------------------
D|-----------------------------------
A|-----------------------------------
E|-----------------------------------

Mere Dil k Shher Mein ... Ghar mera Ho Gya ho gya ...
E|--4--2--4--2--4--------------4--2--4--------------5--4--2-----
B|-----------------5--4--7--------------5--4--2-----------------
G|--------------------------------------------------------------
D|--------------------------------------------------------------
A|--------------------------------------------------------------
E|--------------------------------------------------------------

Sapna Dekha jo Tum ne woh mera ho gya ....ho gya ...
E|--4--2--4--2--4--------------4--2--4--------------5--4--2-----
B|-----------------5--4--7--------------5--4--2-----------------
G|--------------------------------------------------------------
D|--------------------------------------------------------------
A|--------------------------------------------------------------
E|--------------------------------------------------------------

Doobe To Youn jese hawaa ...
E|--11----12-7--4--4-----4--7--5--4--------
B|-----------------------------------7-----
G|-----------------------------------------
D|-----------------------------------------
A|-----------------------------------------
E|-----------------------------------------

Hona Tha Pyar Hua Mere Yaar
E|-----------5-----4--4--4-----4--5-----
B|--7-----5-----------------7-----------
G|--------------------------------------
D|--------------------------------------
A|--------------------------------------
E|--------------------------------------

Hona Tha Pyar Hua Mere Yaar
E|-----------5-----4--4--4-----4--5-----
B|--7-----5-----------------7-----------
G|--------------------------------------
D|--------------------------------------
A|--------------------------------------
E|--------------------------------------

tabs and chords, guitar tabs, music transcription, music technology, deep learning, music information retrieval, transcribe into tabs & chords, chordify, music renditions, songsterr, reverbnation, tabulature, bollywood chords, ultimate guitar, yousician, guitar lessons, acoustic guitar, electric guitar, guitar tuner, 911 tabs