Guitar Tabs for Hollow Knight Bass Guitar Open C Tuning

(/) Slide Up  (\) Slide Down  (h) Hammer On  (p) Pull Off  (b) Bend (r) Release (v) Vibrato (x) Muted

Tabs for Song : 

Song lyrics here
E|--------------------------------------------------------------------------------------------------------------------------
C|--------------------------------------------------------------------------------------------------------------------------
G|--------------0--4--0-----------------0--4--0-----------------0--4--0-----------------0--4--0-----------------0--4--0-----
C|--------4--6-----------6--------4--6-----------6--------4--6-----------6--------4--6-----------6--------4--6-----------6--
G|-----4-----------------------4-----------------------4-----------------------4-----------------------4--------------------
C|--2-----------------------2-----------------------2-----------------------2-----------------------2-----------------------

E|--------------------------------------------------------------------------------------------------------------------------------
C|--------------------------------------------------------------0-----------------------------------------------------------------
G|--------------0--4--0-----------------0--4--0--------------0-----0--------------------------0--4--0-----------------0--4--0-----
C|--------4--6-----------6--------4--6-----------6--------4-----------------------------4--6-----------6--------4--6-----------6--
G|-----4-----------------------4-----------------------0-----------------------------4-----------------------4--------------------
C|--2-----------------------2-----------------------0-----------------0-----------2-----------------------2-----------------------

E|--------------------------------------------------------------------------------------------------------------------------
C|--------------------------------------------------------------------0-----------------------------------------0--5--0-----
G|--------------0--4--0-----------------0--4--0--------------------0-----4--------0--4--0--4--0--------------2-----------2--
C|--------4--6-----------6--------4--6-----------6--------0--2--4-----------2--6-----------------6-----0--5-----------------
G|-----4-----------------------4-----------------------0--------------------------------------------------------------------
C|--2-----------------------2-----------------------0-----------------------------------------------5-----------------------

E|-----------------------------------------------------------------------------------------------------------------------
C|--------------2--------------------------------------------------------------------------------------------------------
G|--------0--4-----------------------0--4--0-----------------0--4--0-----------------0--4--0-----------------0--4--0-----
C|-----2-----------------------4--6-----------6--------4--6-----------6--------4--6-----------6--------4--6-----------6--
G|--0-----------------------4-----------------------4-----------------------4-----------------------4--------------------
C|-----------------------2-----------------------2-----------------------2-----------------------2-----------------------

E|-----------0--3--------------------------------------------------------------------------------------------------------------
C|--------2--------2-----------------1--6--2--1-----------------2-----------------------2--1-----------------------------------
G|-----0--------------0-----------4-----------------------0--4-----0-----------------2--------2--------------------------------
C|--0--------------------0-----6-----------------2-----2--------------2-----------4--------------4--------------4--6--4--------
G|--------------------------4-----------------------0-----------------------0--2--------------------2-----0--4-----------4--0--
C|-----------------------------------------------------------------------------------------------------4-----------------------

E|-----------------------------------------------------------------------------------------------------------------------
C|-----------------------------------------------------------------------------------------------------------------------
G|--------------0--------------------------------------------0-----------------------------------------------0-----------
C|--------0--4-----4-----------0--4--6--4--0--4-----------4-----4-----2--------4--4--6--4--------------0--4-----4--0-----
G|-----0--------------0-----2-----------------------0--4--------------------4--------------4--0-----0-----------------0--
C|--0--------------------0-----------------------0-----------------6-----4-----------------------0-----------------------

E|-----------------------------------------------------------------0--------------------0--------------------------0-----------
C|--------------------------------------------------------------0-----0-----------------------------------------0-----0--------
G|--------------------------------------0--------------------2-----------2--------0--4-----4--0--------------2-----------2--3--
C|--------0--4--6--4--0--------------4-----4-----4-----0--4--------------------2-----------------2-----0--4--------------------
G|-----2-----------------2-----0--4-----------4-----2-----------------------0-----------------------2--------------------------
C|--0-----------------------0--------------------------------------------------------------------------------------------------

E|-----------------------------------------------------------------------------0--6-----
C|--------------------------------------------------------------------------------------
G|--------------3--------------------0-----------------------------------0--4-----------
C|--------2--5-----5--2--0-----0--4-----4--0-----------------------4--6-----------------
G|-----3--------------------0-----------------0-----------------4-----------------------
C|--5--------------------------------------------0-----------4--------------------------

Song lyrics here
E|--
C|--
G|--
C|--
G|--
C|--

Paste any tab in acousterr's tab maker and we'll play it !!!
Now supports capo and sound effects for vibrato/pull-off/hammer/bends/mutes etc !!! Checkout help section
tabs and chords, guitar tabs, music transcription, music technology, deep learning, music information retrieval, transcribe into tabs & chords, chordify, music renditions, songsterr, reverbnation, tabulature, bollywood chords, ultimate guitar, yousician, guitar lessons, acoustic guitar, electric guitar, guitar tuner, 911 tabs